Oops, an error
Loading. Please wait.

El Chabon Tab

version 1
version 1

Whole song

94 views 1 this week
no commentswrite comment
1 2 3 4 5
3 more votes to show rating
add to favorites
launch autoscroll
font size
0
reset
how to read this tab
guitar tuner
×
Best way to learn
"El Chabon"
Autoscroll
slow
fast
+/-
esc
set tempo
stop
E-----------------------------------------------------------------------
B-----------------------------------------------------------------------
G--7--7--7--10--10--10--9---------7--7--7--10--10--10--9--------7--7--7-
D--------------------------7--10--------------------------7--8----------
A-----------------------------------------------------------------------
E-----------------------------------------------------------------------


E-----------------------------------------------------------------------
B----------------------------------------------------------10--8--------
G-7--7--7--7--7--7--7----------10--7-------------6--7--9-----------10--9
D----------------------8----8----------8--7--8--------------------------
A-----------------------------------------------------------------------
E-----------------------------------------------------------------------


E--------------------------------------
B----------10--8-----------------------
G--7--8-----------10--9--7-------------
D--------------------------------------
A--------------------------------------
E--------------------------------------


Sacado por Jorge González
Suggest correction
Give kudos to tab author, rate the tab!
1 2 3 4 5
comments
print report bad tab
guest
You may want to rate the tab now too:
select rating
Wanna post a correction for this tab? Suggest correction