Oops, an error
Loading. Please wait.

El Chabon Tab

version 2
version 2

Whole song

428 views 6 this week
no commentswrite comment
1 2 3 4 5
3 more votes to show rating
add to favorites
launch autoscroll
font size
0
reset
how to read this tab
guitar tuner
×
Best way to learn
"El Chabon"
Autoscroll
slow
fast
+/-
esc
set tempo
stop
Bueno aki les va el INTRO del Chabòn...
lo saquè a oìdo...y creo k es el correcto...
espero les guste...!!!!!
Cualkier sugerencia escrìbanme: hugo_chavez16@

e------------------------------------------------------
B-1-1-1---4-4-4---3------------------------------------
G--------------------0-3-------------------------------
D------------------------------------------------------
A------------------------------------------------------
E------------------------------------------------------

e------------------------------------------------------
B-1-1-1---4-4-4---3------------------------------------
G--------------------0-1-------------------------------
D------------------------------------------------------
A------------------------------------------------------
E------------------------------------------------------

e------------------------------------------------------
B-1-1-1-1-1-1-1-1-1-------4-1--------------------------
G--------------------1-1-------------------------------
D------------------------------------------------------
A------------------------------------------------------
E------------------------------------------------------

e-----------1/3--3-1-----------------------------------
B-0-1-3-4------------4-3-1-----------------------------
G------------------------------------------------------
D------------------------------------------------------
A------------------------------------------------------
E------------------------------------------------------

e----3-1-----------------------------------------------
B-4------4-3-1-----------------------------------------
G------------------------------------------------------
D------------------------------------------------------
A------------------------------------------------------
E------------------------------------------------------
Suggest correction
Give kudos to tab author, rate the tab!
1 2 3 4 5
comments
print report bad tab
guest
You may want to rate the tab now too:
select rating
Wanna post a correction for this tab? Suggest correction