Oops, an error
Loading. Please wait.

Pluma Gay Tab

105 views 1 this week
no commentswrite comment
1 2 3 4 5
3 more votes to show rating
add to favorites
launch autoscroll
font size
0
reset
how to read this tab
guitar tuner
×
Best way to learn
"Pluma Gay"
Autoscroll
slow
fast
+/-
esc
set tempo
stop
hola aqui tienen el punteo de pluma gay
esta muy bueno que lo disfruten

e----------------0----------------------0-----------
b-1-0-1-------1------3--1------------1------3--1----
g-------2-------------------2----------------------0
d---------------------------------------------------
a---------------------------------------------------
e---------------------------------------------------

e-----------------------
b-0---3----1-0-1-0------
g-------------------2---

cualquier duda manden un mail
saludos para los pibes de complejo america la escuela comercio 5
Suggest correction
Give kudos to tab author, rate the tab!
1 2 3 4 5
comments
print report bad tab
guest
You may want to rate the tab now too:
select rating
Wanna post a correction for this tab? Suggest correction