Oops, an error
Loading. Please wait.

En Realidad Tab

15 views 1 this week
no commentswrite comment
1 2 3 4 5
3 more votes to show rating
add to favorites
×
Save as Personal and add changes to this tab that will be seen only by you. Learn more ›
×
You can save this tab as Personal to edit and correct it or add notes. All changes will be seen only by you. Learn more »
save as personal
new!
launch autoscroll
font size
0
reset
how to read this tab
guitar tuner
Autoscroll
slow
fast
+/-
esc
set tempo
stop
Esta cancion va dedicada para Sandra G.S.


INTRO:
                                                           
e ------------------------------------------------------------------------------
B -------7--5--7--7/8---8-7-5----5-----5---5/7--7/5/8-----5----5--7/8--7/5/8----
G ---5/7--7-------------------5/7--5/7---6-------------5/7--5/7--6--------------
D ------------------------------------------------------------------------------
A ------------------------------------------------------------------------------
E ------------------------------------------------------------------------------

e---7/9/7--------------------
B---7/9/7--------------------
G----------------------------
D----------------------------
A----------------------------
E----------------------------

        D                       Em
En realidad, solo queria felicitarte ya lo vez
         A7                        D   A7
por tu nuevo amor, y que sigan adelante
         D                           Em  
En realidad, todas mis cartas eran broma es verdad,
       A7                     D
y mis palabras, fueron solo soledad

                                     A7
En realidad, yo ya tengo quien me quiera
          G              A7             D  D7
lejos de aqui, lejos de todo, lejos de ti

CORO:
                G              A7
'Olvida lo que dije un dia de ti 
                D           Bm
dije que te queria solo menti
               Em          A7
solo estaba jugando si eso es 
          D           D7
jugue contigo ya lo vez 

              G             A7
Olvida ya la tarde que te ame 
                D                Bm
tirados en la arena que yo ya olvide
              Em          A7
y se feliz como debes de ser
         D
y olvidate de mi'

SOLO:
                                                           
e ------------------------------------------------------------------------------
B -------7--5--7--7/8---8-7-5----5-----5---5/7--7/5/8-----5----5--7/8--7/5/8----
G ---5/7--7-------------------5/7--5/7---6-------------5/7--5/7--6--------------
D ------------------------------------------------------------------------------
A ------------------------------------------------------------------------------
E ------------------------------------------------------------------------------

e---7/9/7--------------------
B---7/9/7--------------------
G----------------------------
D----------------------------
A----------------------------
E----------------------------

         D                      Em
En realidad, tube muchas veces la oportunidad
       A7                   D       A7
de confesarte lo que no senti jamas,
         D                    Em
en realidad, eres todo lo que yo llegue a soñar 
         A7                           D     A7
pero es muy tarde, y ahora tengo que callar

         D                    A7
En realidad sera dificil olvidarte,
       G                  A7             D      D7
nunca sabras, que yo te quice mucho en realidad

CORO:
                G              A7
'Olvida lo que dije un dia de ti 
                D           Bm
dije que te queria solo menti
               Em          A7
solo estaba jugando si eso es 
          D           D7
jugue contigo ya lo vez 

              G             A7
Olvida ya la tarde que te ame 
                D                Bm
tirados en la arena que yo ya olvide
              Em          A7
y se feliz como debes de ser
         D
y olvidate de mi.


El coro se repite una vez mas
Suggest correction
Give kudos to tab author, rate the tab!
1 2 3 4 5
comments
print report bad tab
guest
Wanna post a correction for this tab? Suggest correction