Oops, an error
Loading. Please wait.

Secuestrado Por El Estado Chords

41 views 3 this week
no commentswrite comment
1 2 3 4 5
3 more votes to show rating
add to favorites
launch autoscroll
font size
0
reset
transpose
0
reset
display chords
guitar tuner
Autoscroll
slow
fast
+/-
esc
set tempo
stop
Help us to improve Ultimate-Guitar.com Take our survey!
×
Intro: C - G# - G (x4)


D#     A#    C  A#  C
ELLOS ME TIENEN ENCERRADO
D#       A#     C
EN CONTRA DE MI VOLUNTAD
D#     A#    C   A#  C
VOY DE FUSIL Y CAMUFLADO
G#        A#        C
Y ME OBLIGAN A DISPARAR


D#     A#   C   A#   C
PARA DEFENDER SUS INTERESES,
D#       A#      C
PARA AUMENTAR SU CAPITAL.
D#     A#   C    A#  C
DEFENDIENDO A LOS BURGUESES
G#        A#        C
Y A LA OLIGARQUÍA NACIONAL
G#        A#        C
COMO UN SOLDADO REGULAR


e|------------------------------------------------------------------|
B|------------------------------------------------------------------|
G|-------------------------88888-7777-8-7-5-8-7--555555-333333-5----|
D|------------------------------------------------------------------|
A|------------------------------------------------------------------|
E|---656565656565656565---------------------------------------------|

e|------------------------------------------------------------------|
B|------------------------------------------------------------------|
G|--888888-7777-8-7-5-8-7----9999-888-7------10---------------------|
D|------------------------------------------------------------------|
A|------------------------------------------------------------------|
E|------------------------------------------------------------------|


D#    A#    C   A#   C
ELLOS ME TIENEN ENCERRADO
D#        A#        C
EN CONTRA DE MI VOLUNTAD
D#  A#  C  A#  C
MURIENDO ENJAULADO,
G#     A#      C
PRIVADO DE LA LIBERTAD


D#  A#   C   A#   C
VIVIENDO INCOMUNICADO,
D#      A#      C
SIN DERECHO A HABLAR
D#    A#     C      A#     C
DICEN QUE LOS HE TRAICIONADO
G#      A#        C
YO NUNCA LES JURE LEALTAD
G#      A#        C
SOY UN PRISIONERO NACIONAL


|------------------------------------------------------------------|
B|------------------------------------------------------------------|
G|-------------------------88888-7777-8-7-5-8-7--555555-333333-5----|
D|------------------------------------------------------------------|
A|------------------------------------------------------------------|
E|---656565656565656565---------------------------------------------|

e|------------------------------------------------------------------|
B|------------------------------------------------------------------|
G|--888888-7777-8-7-5-8-7----9999-888-7------10---------------------|
D|------------------------------------------------------------------|
A|------------------------------------------------------------------|
E|------------------------------------------------------------------|


C G# G  C G# G  C G# G
SECUESTRADO POR EL ESTADO (x4)
  C      C
.ESTOY
Suggest correction
Give kudos to tab author, rate the tab!
1 2 3 4 5
comments
print report bad tab
guest
You may want to rate the tab now too:
select rating
Wanna post a correction for this tab? Suggest correction