Oops, an error
Loading. Please wait.

Ahora Y Siempre Tab

version 1
version 1

Whole song

71 views 1 this week
no commentswrite comment
1 2 3 4 5
3 more votes to show rating
add to favorites
launch autoscroll
font size
0
reset
how to read this tab
guitar tuner
×
Best way to learn
"Ahora Y Siempre"
Autoscroll
slow
fast
+/-
esc
set tempo
stop
Original en D

Intro

      Em               D               B7                E
e-----3------3----3----3---2-0-2-------5------5----5-----5---4-2-4--
B----5------5----5----5----3-2-3------7------7----7-----7----5-4-5--
G-2/4----2/4--2/4--2/4-------------4/7----4/7--4/7---4/7------------

        D                      G#                      C#m   G7   F#7
e-2-3-4-5/2--5/2---5/2---5/2---5/2---5/2---5/2---5/2----4--------------4
B----------3----3-----3-----3-----4-----4-----4-----4---5-------------2-
G-----------4----4-----4-----4-----5-----5-----5-----5--6------------3--
                                                       E------3--3-2----

        Bm                      E   Ab/A#       A  Edim   Bm  E7
e-2-3-4-5-2-0-------------------------4--7--5-4-5--
B------------3-2-0-2-3-0--------------5------------
G------------------------2222-2-1-----5------------
D----------------------------4-4------6------------

       A    Bm          C#m     Cm          Bm  1              E
A mi vida cansada y marchita llegaste una vez,  e--1010-99-77-55-44-22-0--
                                                B-7---------------------3-

       Bm                 E       Ab/A#   A       E--4-2--4-2-
y cambiaste dolor y tristeza por algo mejor;      B---5----5--

        A        A/G#    A/F#   Edim           Bm  1 E
es por eso que quiero decirte que tú eres mi todo,
        Bm                  Ddim                A    C#m  Cm  Bm  E
es por eso que quiero que sepas que sin ti me muero.

CORO
          A     Bm          C#m     Cm       Bm  1  E
Ahora y siempre serás en mi vida eterna ilusión,
        Bm                  C#7    E7           A   A7
y tu imagen será en mi existencia como una obsesión;
        D                    Dm                      A   G#7  G7  F#7
tus miradas, tus besos, tus ansias, son cosas que llevo;
           Bm                  E    Ab/A#       A  A7     Intro
ahora y siempre dentro muy adentro, de mi corazón.

CORO                                             (arrastrar hasta cero)
                                          e-10--9-7-5-4/0-
                                          B-12-10-9-7-5/0-

              A   F F           A     A(14)
...de MI corazón,    de MI corazón.
Suggest correction
Give kudos to tab author, rate the tab!
1 2 3 4 5
comments
print report bad tab
guest
You may want to rate the tab now too:
select rating
Wanna post a correction for this tab? Suggest correction