Oops, an error
Loading. Please wait.

Ahora Y Siempre Tab

version 2
version 2

Whole song

59 views 1 this week
no commentswrite comment
1 2 3 4 5
3 more votes to show rating
add to favorites
launch autoscroll
font size
0
reset
how to read this tab
guitar tuner
Autoscroll
slow
fast
+/-
esc
set tempo
stop
Help us to improve Ultimate-Guitar.com Take our survey!
×
Intro

e-------1------1------1-------1-]---------]
B-------------------------------]-3--2--3-]
G--0h1-2--0h1-2--0h1-2--0h1--2--]-2--1--2-]

e-------4-------4-------4-------4-]-3--2--3-]
B---------------------------------]-4--3--4-]
G-2-3-4---3-4-5---3-4-5---3-4-5---]---------]

e-2345h2---5h2-----5h2---5h2--------4------]
B-------3------3------4------4------5------]
G--------2------2------2------2-----6------]

D---2-----3------4-]
A--3-----4------5--]
E-0---0-2----3-3---]

************RAPIDO******************
e-2345-2-2--------------------------]
B---------3-3-2-2-------------------]
G----------------4-4-2-2------------]
D-----------------------3-4-3-4-5-6-]
    **rapido**
e-6----------]
B-5----------]
G-6-7-5-4-5--]

      D                 F#m
A mi vida cansada y marchita
    Fm        Em A7
llegaste una vez
         Em             A7
Y cambiaste dolor y tristeza
           D
por algo mejor


         D     Em         F#m
Es por eso que quiero decirte
     Fm         Em A7
que tu eres mi todo
         Em                A7
es por eso que quiero que sepas
                D  Bm  Em  A7
que sin ti me muero


          D                 F#m
Ahora y siempre serás en mi vida
  Fm       Em A7
eterna ilusión
        Em                  F# 
y tu imagen será en mi existencia
             Bm Am D7
como una obsesión


       G                     Gm
Tus miradas, tus besos, tus ansias
             D    C B7
son cosas que llevo

          Em                 A7
ahora y siempre dentro muy adentro
           D
de mi corazón


Ahora y siempre??

Tus miradas, tus besos, tus ansias
Suggest correction
Give kudos to tab author, rate the tab!
1 2 3 4 5
comments
print report bad tab
guest
You may want to rate the tab now too:
select rating
Wanna post a correction for this tab? Suggest correction