Oops, an error
Loading. Please wait.

Cerezo Rosa Tab

264 views 1 this week
no commentswrite comment
1 2 3 4 5
3 more votes to show rating
add to favorites
launch autoscroll
font size
0
reset
how to read this tab
guitar tuner
×
Best way to learn
"Cerezo Rosa"
Autoscroll
slow
fast
+/-
esc
set tempo
stop
1----------------------0-0-1-1-3-|----1---0---1---0-----1---------|
2----------0-0-1-1-3-3-----------|-------------------------3------|
3--0-0-2-2-----------------------|--------------------------------|
4--------------------------------|--------------------------------|
5--------------------------------|--------------------------------|
6--------------------------------|--------------------------------|


1----------3-3-5-5-7-7-5-5-3-3-1-1-0-0-3-----------|
2--------------------------------------------------|
3--------------------------------------------------|
4--------------------------------------------------|
5--------------------------------------------------|
6--------------------------------------------------|


1--------------------------------|--------------------------------|
2----------0-0-3-3-2-2-1-1-0-0---|------------------3-----1---0---|
3------0-0-----------------------|-2------------------------------|
4--2-2---------------------------|-------------3------------------|
5--------------------------------|--------------------------------|
6--------------------------------|--------------------------------|


1---------12-----12------8------0-0-|------0-0-1-1-2-2-3-|
2------------------------8----------|-4-4----------------|
3--12------------12------9----------|--------------------|
4-----------------------------------|--------------------|
5-----------------------------------|--------------------|
6-----------------------------------|--------------------|


DUDAS COMENTARIOS
AL CORREO
SALUDOS!!!
Suggest correction
Give kudos to tab author, rate the tab!
1 2 3 4 5
comments
print report bad tab
guest
You may want to rate the tab now too:
select rating
Wanna post a correction for this tab? Suggest correction