Oops, an error
Loading. Please wait.

Toda Una Vida Tab

131 views 1 this week
no commentswrite comment
1 2 3 4 5
3 more votes to show rating
add to favorites
launch autoscroll
font size
0
reset
how to read this tab
guitar tuner
×
Best way to learn
"Toda Una Vida"
Autoscroll
slow
fast
+/-
esc
set tempo
stop
Este es el requinto de la cancion Toda una vida 
de los Tecolines.


__      
  \                                       
   1|-----5-7-8-7-5-7-8-8-------------------
 ) 2|---------------------6-----------------
   3|---------------------------------------
   4|---------------------------------------
 ) 5|---------------------------------------
   6|---------------------------------------
__/


__      
  \                                       
   1|------5-7-5---5-7-7--------------------
 ) 2|----8-------8-------5------------------
   3|---------------------------------------
   4|---------------------------------------
 ) 5|---------------------------------------
   6|---------------------------------------
__/


__      
  \                                       
   1|-----------------5-5------8----7--5--4--0-------
 ) 2|---5-6-8-6-5-6-8----------10---8--6--3----------
   3|---------------------7---------------4----------
   4|------------------------------------------------
 ) 5|------------------------------------------------
   6|------------------------------------------0/1/0-
__/


 Saludos a la gente de Reynosa 
 Alguna duda o sujerencia, intercambios requintos de los tres Reyes
 no duden en mandarme un e-mail.
 Gerardo Lee Calera Reynosa tamps. ( re5to@
Suggest correction
Give kudos to tab author, rate the tab!
1 2 3 4 5
comments
print report bad tab
guest
You may want to rate the tab now too:
select rating
Wanna post a correction for this tab? Suggest correction