Oops, an error
Loading. Please wait.

Al Otro Lado Del Sol Bass

59 views 1 this week
no commentswrite comment
1 2 3 4 5
3 more votes to show rating
add to favorites
launch autoscroll
font size
0
reset
guitar tuner
×
Best way to learn
"Al Otro Lado Del Sol"
Autoscroll
slow
fast
+/-
esc
set tempo
stop
El Bajeo, dura todo el tiempo, calculenlo ustedes.
De preferencia oigan la canción.


  Tengo...      ...Puerto                Tiene...    ...Hogar
  E                F#m                   B7              E
E-0----0-----------2----2-----------------2----2---------0----0--------
A-------2-2--------------4-4--------------------2-2------------2-2-----
G----------------------------------------------------------------------
B----------------------------------------------------------------------
e----------------------------------------------------------------------


 Sin Env.    Desconcierto                Puede...     ...Mar
  E               F#m                     B7              E
E-0----0-----------2----2-----------------2----2----------0----0-------
A-------2-2--------------4-4---------------------2-2------------2-2----
G----------------------------------------------------------------------
B----------------------------------------------------------------------
e----------------------------------------------------------------------


..Date      ...Vendrá        ...llevará
  A                G#m            C#7
E-------0-0---------4----4---------4----4-----
A-0----0-------------------6-6------------4-4-
D----------------------------------------------
G----------------------------------------------
B----------------------------------------------
e----------------------------------------------

   ...amanecer             ...Amor       ...del Sol
       F#m                     B7                E                    B7
E-------2----2-----------------2----2-------------0----0----------------------
A--------------4-4--------------------2-2----------------2-2-----------2------
G-----------------------------------------------------------------------------
B-----------------------------------------------------------------------------
e-----------------------------------------------------------------------------


Al otro lado del so................................oooll
                 C               D                  E
E----------------3----3-----------------------------0----0----
A-----------------------3-3-------------0-0----------------2-2
D--------------------------------0----0------------------------
G--------------------------------------------------------------
B--------------------------------------------------------------


Que bonita canción, como!!!! me gusta. Albert Hamon, NO la caga!!!!!!!


Atte Ya saben, El pupilo de Omar Pedraza, el Temerario Mayor
Suggest correction
Give kudos to tab author, rate the tab!
1 2 3 4 5
comments
print report bad tab
guest
You may want to rate the tab now too:
select rating
Wanna post a correction for this tab? Suggest correction