Oops, an error
Loading. Please wait.

Al Otro Lado Del Sol Tab

71 views 1 this week
no commentswrite comment
1 2 3 4 5
3 more votes to show rating
add to favorites
launch autoscroll
font size
0
reset
how to read this tab
guitar tuner
Autoscroll
slow
fast
+/-
esc
set tempo
stop
Help us to improve Ultimate-Guitar.com Take our survey!
×
la siguiente rola, es mas de omar que mia


Si Omar, Si, el requinto es en teclados pero se escucha bien en
guitarra sino, escucha:


En Posisión de mi mayor, se tocan las siguientes 
cuerdas (arpegeo)


Intro:

E-0--------------
A----------------
D-----2----------
G---1------------      
B-0---------0-2--
e-------0-2----0-2

comienza el rasgueo en mi mayor y se repite

E-0--------------
A----------------
D-----2----------
G---1------------      
B-0---------0-2--
e-------0-2----0-2/4


(transcripción de Omar Pedraza)

E 
Tengo terminada la barca esta esperando en el 
  F#m     B7 
puerto, tiene que existir un hogar para nuestro
   E
amor.

E-0--------------
A----------------
D-----2----------
G---1------------      
B-0--------------
e-------0--------

 E                                        F#m
Sin envidias, sin maldad, sin tanto desconcierto
  B7                                          E
puede que lo encuentre alla, al oto lado del sol.

E-0--------------
A----------------
D-----2----------
G---1------------      
B-0--------------
e-------0--------
 A                                           G#m
Vamonos de viaje prepara el equipaje no hay tiempo
               C#7        F#m            B7
ya, que al despertar, la nueva luz nos guiara al
 E                    E7  
mar azul, abriendo camino.
 A       
Date mucha prisa que el soplo de la brisa vendra
   G#m           C#7          F#m             B7
a buscar y se llevara, al amanecer nuestro amor al
               E
Otro lado del sol.

E-0--------------
A----------------
D-----2----------
G---1------------      
B-0--------------
e-------0-2-----
 E                                       F#m       B7
Ya no que nada en el mundo que nos haga dudar, no, para
                                E
conservar el amor es mejor marchar.
E-0--------------
A----------------
D-----2----------
G---1------------      
B-0-------------
e-------0-2------
                                          F#m 
No nos hace falta la gente ni vivir a su lado, tomame
           B7                    E
la mano, duerme y no lo pienses mas.

Intermedio:

(en la eslala de E)
con la uña, pua o la targeta de telefono, rasgar hacia
 arriba y hacia abajo. Y  para que se oiga al tiempo, 
paren la oreja para los cambios.

  E        F#7       B7            E

G--------------------------------------
B-9--------10-9-7---10-12-14-12----10-9
e-7---------9-7-5----9-10-12-10-----9-7


  E        F#7       B7        E7    

G--------------------------------------
B-9--------10-9-7---10-12-14-16-17
e-7---------9-7-5----9-10-12-14-16

     E7
Abriendo Camino
 A                                           G#m
Vamonos de viaje prepara el equipaje no hay tiempo
               C#7        F#m            B7
ya, que al despertar, la nueva luz nos guiara al
 E                    E7  
mar azul, abriendo camino.
 A       
Date mucha prisa que el soplo de la brisa vendra
   G#m           C#7          F#m             B7
a buscar y se llevara, al amanecer nuestro amor al
               E   B7(silencio)                 C   D   E
Otro lado del sol.             Al otro lado del Soooool
                 


Nota en los F#m,para que la nota se escuche como el teclado, 
se hace una disonancia queando así:


E-2------
A-------4
D-2------
G-2------  el dos, es cejilla y el 4 en la cueda e, es la disonancia
B-2------  (la disonancia, se la ponen y quintan al tiempo de
e-------4   la canción. y la otra disonancia es el arpegeo de E
            que para que noi pierdan ritmo, recomiendo y toquen
            el acorde y solo le agregan su disonancia.)


Omar, no te enojes, mejor manda tu opinión a mi correo.
PD el que se enoja la caga!!!
Suggest correction
Give kudos to tab author, rate the tab!
1 2 3 4 5
comments
print report bad tab
guest
You may want to rate the tab now too:
select rating
Wanna post a correction for this tab? Suggest correction