Oops, an error
Loading. Please wait.

Caminando Voy Tab

version 3
version 3

Whole song

44 views 1 this week
no commentswrite comment
1 2 3 4 5
3 more votes to show rating
add to favorites
launch autoscroll
font size
0
reset
how to read this tab
guitar tuner
×
Best way to learn
"Caminando Voy"
Autoscroll
slow
fast
+/-
esc
set tempo
stop
Esta es la intro exacta de estra gran cancion de los temerarios
esta transcripcion va dedicada a mi Dios que me da la sabiduria
y el talento para poder hacer esto...............


INTRO DE GUITARRA

E|----------------------------------------------------------------|
B|-------------------13-------------------------------------------|
G|-12b13b15-15-15-12----15~~-12-12-13-14-14-14-14-12--------------|
D|---------------------------------------------------15-13~~------|
A|----------------------------------------------------------------|
E|----------------------------------------------------------------|


E|----------------------------------------------------------------|
B|-16-15-13-------------------------------------------------------|
G|----------15/17-15-13-12-13-12----------12----------------------|
D|-------------------------------15-15-13----15~~-----------------|
A|----------------------------------------------------------------|
E|----------------------------------------------------------------|


      Eb            Ab
 Caminando voy, y asi debe ser.
         Eb
 Yo no dejo de soñar.
          Cm
 Ni me detengo a pensar.
           Ab               Eb
 Lo que de mi diran. Mejor les canto.

         Eb
 Porque como pagar.
            Ab
 Que nos quieran asi.
        Eb
 Y que canten conmigo.
   Cm       Ab               Eb
 Gracias, gracias por tanto cariño.

       Eb
 El aplauso hoy.
     Ab
 Es para ustedes.
              Eb
 De nuestro corazon.
   Cm     Ab               Eb
Gracias, si, gracias por tanto amor.

     Eb              Ab
Caminando voy, hace tiempo ya.
            Eb
 Y ustedes siguen ahi.
   Cm
 Gracias.
        Ab               Eb
 Por hacernos felices, gracias.

      Eb            Ab
 Caminando voy, y asi debe ser.
         Eb
 Yo no dejo de soñar.
          Cm
 Ni me detengo a pensar.
            Ab              Eb
 Lo que de mi diran. Mejor les canto.


 Cm          Ab       Eb         Ab
 Ahhhh, Ehhhh, Ahhhhh, Ahhhhhhhhhhhh.

       Eb                     Ab
mejor les canto(no no yo no dejo de soñar)
       Eb               Ab
mejor les canto(yo no dejo de soñar).
       Eb
mejor les canto.
Suggest correction
Give kudos to tab author, rate the tab!
1 2 3 4 5
comments
print report bad tab
guest
You may want to rate the tab now too:
select rating
Wanna post a correction for this tab? Suggest correction