Oops, an error
Loading. Please wait.

Como Te Recuerdo Tab

344 views 3 this week
no commentswrite comment
1 2 3 4 5
3 more votes to show rating
add to favorites
launch autoscroll
font size
0
reset
how to read this tab
guitar tuner
×
Best way to learn
"Como Te Recuerdo"
Autoscroll
slow
fast
+/-
esc
set tempo
stop
este es el intro de esta linda cancion de temerarios


e---------------------------------0-0-0-0-0-0-0-0-0-0-0-0-+
b-0-----2-----2---4-----2-----2---2-2-2-0-0-0-2-2-2-0-0-0-+
G---1-----1-----1---1-----1-----1-2-2-2-1-1-1-2-2-2-1-1-1-+
D-----2-----2---------2-----2-----2-2-2-2-2-2-2-2-2-2-2-2-+
A---------------------------------0-0-0-2-2-2-0-0-0-2-2-2-+
E-0-------------------------------------0-0-0-------0-0-0-+

e-2/0--------------------------------------------
b-----0---------0-----2-----2----4-----2-----2---
G-------1---------1-----1-----1----1-----1-----1- A E A E
D---------2---------2-----2----------2-----2-----
A-----------2------------------------------------
E-------------0-0--------------------------------

e-2/0--------------------------------------------
b-----0---------0-----2-----2----4-----2-----2---
G-------1---------1-----1-----1----1-----1-----1- A E A E
D---------2---------2-----2----------2-----2-----
A-----------2------------------------------------
E-------------0-0--------------------------------

dedicado a mi linda amiga que la quiero mucho:
:::      ::     ::  ::  :::::::::  :::::::::
:::      ::     ::  ::  ::         ::     :: 
:::      ::     ::  ::  :::::::::  ::     ::
:::      ::     ::  ::         ::  :::::::::
:::::::  :::::::::  ::  :::::::::  ::     ::
te amo... y regresa a mi vida te lo pido
Suggest correction
Give kudos to tab author, rate the tab!
1 2 3 4 5
comments
print report bad tab
guest
You may want to rate the tab now too:
select rating
Wanna post a correction for this tab? Suggest correction