Oops, an error
Loading. Please wait.

Como Tu Chords

version 1
version 1

Whole song

65 views 3 this week
no commentswrite comment
1 2 3 4 5
3 more votes to show rating
add to favorites
launch autoscroll
font size
0
reset
transpose
0
reset
simplify chords
display chords
guitar tuner
Autoscroll
slow
fast
+/-
esc
set tempo
stop
Help us to improve Ultimate-Guitar.com Take our survey!
×
Armoniza en DO mayor

e------0-------------------------0--------------
B----1---1-1---0---------------1---1-1-3--3-----
G--2-----2-2-0---2-2-2---2---2-----2-2-4--4-----
D----------------3-3-0-3-0----------------------
A----------------------5------------------------
E-----------------------------------------------

e--5-3-1-3--8--8--8-7-5-5-3-1-3----------------
B--6-5-3-5-10-10-10-8-6-6-5-3-5----------------
G----------------------------------------------
 C                     F 
Como tu solo quiero olvidar, solo quiero
 G7    F        C             C7
borrar... tu cariño. Como tu asi como 
         F                 G7    F
hiciste tu, solo quiero arrancar... mi
       C          Am   Em
gran amor por ti. AH, AH.
 F    G7    C          F     G7       C  
Como tu me diste amor, y despues un triste
         F       G7         C
adios. Quiero olvidar tu risa, tu voz.
  F      G7        C              F
Quiero apagar mi llanto por ti, quiero
    G7       C         F    G7
olvidar que te conoci. Asi, asi, asi como
         C
hiciste tu.
Suggest correction
Give kudos to tab author, rate the tab!
1 2 3 4 5
comments
print report bad tab
guest
You may want to rate the tab now too:
select rating
Wanna post a correction for this tab? Suggest correction