Oops, an error
Loading. Please wait.

Dice Adios Tu Mano Al Viento Tab

56 views 1 this week
no commentswrite comment
1 2 3 4 5
3 more votes to show rating
add to favorites
launch autoscroll
font size
0
reset
how to read this tab
guitar tuner
×
Best way to learn
"Dice Adios Tu Mano Al Viento"
Autoscroll
slow
fast
+/-
esc
set tempo
stop
Armoniza en Mi mayor
Este requinto se toca en la escala diationica
de Mi mayor.
/=slide
^= pull off

e--9--9--9--9/11--9-12-7--7-7-7/ 8-7-11-5-
B-10-10-10-10/12-10-14-9--9-9-9/10-9-12-7-
G-----------------------------------------
D-----------------------------------------
A-----------------------------------------
E-----------------------------------------

e-5-5-5/7-5-4---------------------
B-7-7-7/9-7-5---------------------
G--------------2^4^2--------------
D--------------------2^4^2--------
A---------------------------2^4^2-
E---------------------------------
Suggest correction
Give kudos to tab author, rate the tab!
1 2 3 4 5
comments
print report bad tab
guest
You may want to rate the tab now too:
select rating
Wanna post a correction for this tab? Suggest correction