Oops, an error
Loading. Please wait.

El Amor Que Te Di Tab

14 views 1 this week
no commentswrite comment
1 2 3 4 5
3 more votes to show rating
add to favorites
launch autoscroll
font size
0
reset
how to read this tab
guitar tuner
×
Best way to learn
"El Amor Que Te Di"
Autoscroll
slow
fast
+/-
esc
set tempo
stop
Armoniza en Sol mayor
Este requinto se toca en escalas Sexta

e-7-7-7-5-8-7--7-7-7-5-8-7--7-7-7-8-7-5-
B---------------------------------------
G-7-7-7-5-9-7--7-7-7-5-9-7--7-7-7-9-7-5-
D---------------------------------------
A---------------------------------------
E----------------------------------------

e-8-8-8-10-8-7--3-5-7-12-12-10-8-7-8-7-5-7--12-10-8-
B---------------------------------------------------
G-9-9-9-10-9-7--4-5-7-12-12-10-9-7-9-7-5-7--12-10-9-
D---------------------------------------------------
A---------------------------------------------------
E---------------------------------------------------

e-8-8-8-10-8-7--3-5-7-12-12-10-8-7-8-7-5-3--8-7-5-3-
B---------------------------------------------------
G-9-9-9-10-9-7--4-5-7-12-12-10-9-7-9-7-5-4--9-7-5-4-
D---------------------------------------------------
A---------------------------------------------------
E---------------------------------------------------
Suggest correction
Give kudos to tab author, rate the tab!
1 2 3 4 5
comments
print report bad tab
guest
You may want to rate the tab now too:
select rating
Wanna post a correction for this tab? Suggest correction