Oops, an error
Loading. Please wait.

Eras Todo Para Mi Tab

97 views 1 this week
no commentswrite comment
1 2 3 4 5
3 more votes to show rating
add to favorites
×
Save as Personal and add changes to this tab that will be seen only by you. Learn more ›
×
You can save this tab as Personal to edit and correct it or add notes. All changes will be seen only by you. Learn more »
save as personal
new!
launch autoscroll
font size
0
reset
how to read this tab
guitar tuner
Autoscroll
slow
fast
+/-
esc
set tempo
stop
Hola como estan aqui les mando esta muy buena tab.
Me mandaron un correo pidiendome esta cancion y aqui 
esta.

   INTRO:

  E--------------------------2------------------------------|
  B--8-8-8\6-6\5----8-8/10-8-3-1----------------------------|
  G--9-9-9\7-7\5----9-9/11-9---2----------------------------|
  D---------------------------------0-2-2h3-2---------------|
  A--------------------------------3-----------3-3h4-3\2----|
  E-----------------------------------------------------4---|
 
 
  E----------------------------------------------------------------|
  B--7-7-7-7-10-7-10-13---6-6/9--9--7-7-7-7-----7---5---3---1------|
  G--7-7-7-7-11-7-11-14---7-7/10-10-7-7-7-7----8---6---4---2-------|
  D-------------------------------------------9----------------2---|
  A----------------------------------------------------------------|
  E----------------------------------------------------------------|


  E---------------------------3------------------------------------|
  B--8-8-8\6-6\5----8--9/11-8-4-2----------------------------------|
  G--8-8-8\7-7\5----9-10/12-9---3----------------------------------|
  D----------------------------------0-2-2h3-2---------------------|
  A---------------------------------3-----------3-3h4-3\2----------|
  E------------------------------------------------------4---------|


  E----------------------------------------------------------------|
  B--7-7-7-7-10-7-10-13---6-6/9--9--7-7-7-7-----7---5---3---1------|
  G--7-7-7-7-11-7-11-14---7-7/10-10-7-7-7-7----8---6---4---2-------|
  D-------------------------------------------9----------------4---|
  A----------------------------------------------------------------|
  E----------------------------------------------------------------|


 C     
 Eras, todo para mi.
                                     F
 Pero te deje partir, y hoy me arrepiento.
          Em            G
 A todos digo, que sin ti soy feliz.
      C
 Pero, pero no es cierto.

   C
 Ahora, ahora que no estas conmigo.
                    F           Em
 No encuentro el motivo para soñar.
      G                      Am
 E intento olvidar, que fui yo,
             F                  C
 Quien provoco, nuestra separacion.

        C                F
 La verdad es que te extraño.
         Em
 Y no quiero llorar,
      G                       F
 Asi paso los dias tristes, tristes,
        C
 Sin poderte olvidar.

                       G
 Y no me pidas una explicacion.
                  C
 Yo le digo a mi corazon.
                  G
 No tengo la respuesta no,
       F G       C
 Solo se...que duele.

                       G
 Y no me pidas una explicacion.
                     C
 Porque casi pierdo la razon.
                  G
 No tengo la respuesta no.
       F G       C
 Solo se...que duele.


   INTER:


  E----------------------------------------------------------------|
  B--1/8-8-8-8-8-8h10-8-------------1/8-8-8-8-8-8h10-8---1-3-3/5---|
  G----------------------4-5-5/7-----------------------------------|
  D----------------------------------------------------------------|
  A----------------------------------------------------------------|
  E----------------------------------------------------------------|


  E-------------------5\4------------------------------------------|
  B--1/8-8-8-8-8-8-10-----3-5-5/7-7-7-7--9-9-9-11-11-11--11/13-----|
  G----------------------------------------------------------------|
  D----------------------------------------------------------------|
  A----------------------------------------------------------------|
  E----------------------------------------------------------------|


        C                F
 La verdad es que te extraño.
         Em
 Y no quiero llorar.
      G                       F
 Asi paso los dias tristes, tristes,
        C
 Sin poderte olvidar.

                       G
 Y no me pidas una explicacion.
                  C
 Yo le digo a mi corazon.
                  G
 No tengo la respuesta no,
       F G       C
 Solo se...que duele.

                       G
 Y no me pidas una explicacion.
                     C
 Porque casi pierdo la razon.
                  G
 No tengo la respuesta no,
       F G       C    F  G       C 
 Solo se...que duele.......Que duele.
  

   FINAL:  


  E------------------------------------------------------------------|
  B--1/8--8-8-8-8-8h10-8-------------1/8--8-8-8-8-8h11-8\1-3-3/5-----|
  G---------------------4-5-5/7--------------------------------------|
  D------------------------------------------------------------------|
  A------------------------------------------------------------------|
  E------------------------------------------------------------------|


  E------------------------------------------------------------------|
  B--1/8-8-8-8-8-8-8-8-8h10-8------------1/8-8-8-8-8-8-h11-8\1-3-3/5-|
  G---------------------------4-5-5/7--------------------------------|
  D------------------------------------------------------------------|
  A------------------------------------------------------------------|
  E------------------------------------------------------------------|


  E------------------------------------------------------------------|
  B--1/8-8-8-8-8-8-h10-8-------------1/8-8-8-8-8-8h10-8-vibrato------|
  G----------------------4-5-5/7-------------------------------------|
  D------------------------------------------------------------------|
  A------------------------------------------------------------------|
  E------------------------------------------------------------------|


  E------------------------------------------------------------------|
  B--1/9-9-9-9-9-9h11-9--------------1/9-9-9-9-9-9-9-9h11-9\2-4-4/5--|
  G---------------------5-6-6/8--------------------------------------|
  D------------------------------------------------------------------|
  A------------------------------------------------------------------|
  E------------------------------------------------------------------|


  
  E----------------------------------3/5-5---------------------------|
  B--1/9-9-9-9-9-9h11-9---------------------4/6-4--------------------|
  G---------------------5-6-6/8---------------------7/9-7--7h9-7-5-3-|
  D------------------------------------------------------------------|
  A------------------------------------------------------------------|
  E------------------------------------------------------------------|

      C    C    C
      
  E---0----0----0---|
  B---1----1----1---|
  G---0----0----0---|  (Rasguean cuerdas hacia abajo
  D---2----2----2---|   tres veces)
  A---3----3----3---|
  E---0----0----0---|


Ahi esta esta cancion, espero y la disfruten,
y le den votos. Hasta luego.
Suggest correction
Give kudos to tab author, rate the tab!
1 2 3 4 5
comments
print report bad tab
guest
Wanna post a correction for this tab? Suggest correction