Oops, an error
Loading. Please wait.

Esos Amores Tab

49 views 1 this week
no commentswrite comment
1 2 3 4 5
3 more votes to show rating
add to favorites
launch autoscroll
font size
0
reset
how to read this tab
guitar tuner
Autoscroll
slow
fast
+/-
esc
set tempo
stop
Help us to improve Ultimate-Guitar.com Take our survey!
×
Pos ahorita no traigo mi compañera,
pero creo que el requinto es así:

Intro:

     E----------------------
     A----------------------
     D----------------------
     G----------------------
     B--10/12-10--8-12-12---
     e---9/10--9--7-10-10---

     E--------------------------------------
     A--------------------------------------
     D--------------------------------------
     G--------------------------------------
     B--8-10-12--10-12-10-12-10-12---10-8-7--
     e--7--9-10---9-10--9-10--9-10----9-7-5--

     E----------------------------------------
     A----------------------------------------
     D----------------------------------------
     G----------------------------------------
     B--7-8-10--8-10-8-10-8-10--8-7-5---------
     e--5-7--9--7--9-7--9-7--9--7-5-3---------

     E---------------------------------------
     A---------------------------------------
     D---------------------------------------
     G---------------------------------------
     B--5-7-8--7-8-7-8-7--8-7-5-3
     e--3-5-7--5-7-5-7-5--7-5-3-2


Final:

     E
     A
     D
     G
     B--6-7-9-8-9---------------
     e------------6-8-9---8-9---
Suggest correction
Give kudos to tab author, rate the tab!
1 2 3 4 5
comments
print report bad tab
guest
You may want to rate the tab now too:
select rating
Wanna post a correction for this tab? Suggest correction