Oops, an error
Loading. Please wait.

Fuiste Mala Tab

33 views 1 this week
no commentswrite comment
1 2 3 4 5
3 more votes to show rating
add to favorites
launch autoscroll
font size
0
reset
how to read this tab
guitar tuner
×
Best way to learn
"Fuiste Mala"
Autoscroll
slow
fast
+/-
esc
set tempo
stop
1.|------------------|
2.|-5-5-5-3-1-3-1-0--|
3.|------------------|

1.|------------------|
2.|-6-5-3-6-5--------|
3.|------------------|

1.|-3-5-1--5-3-1-1-0-|
2.|------------------|
3.|------------------|

1.|------------------|
2.|-5-6-5-3----------|
3.|------------------|

1.|------------------|
2.|-3/5-3-1-0--------|
3.|-----------2------|

Am
La promesa que me hiciste tú,
             E7
Donde ha quedado

Has dejado a mi corazón por ti,
   Am
Acabado.


       Am
Me dijiste que seria de ti,
     E7
Tu dueño

Y tu eras muy feliz,
                Am
Pero te has marchado.


        Am
Es posible olvidarte a ti,
      E7
Es posible

Aunque sea grande mi dolor
               Am
Por ti, te olvidare.


A7               Dm
Yo no tengo la culpa, no
            Am
Siempre te quise
       Dm
Me engañaste
          Am
Tu me engañaste
        E7                Am
Fuiste mala, mala con mi amor.


A7              Dm
Yo no tengo la culpa no,
            Am
Siempre te quise
    Dm            Am
Mentiste, tu te reíste
      E7        Am
De mi pobre corazón.


1.|-----------------------|
2.|-5-5-5-3-1-5-----------|
3.|-----------------------|

1.|-----------------------|
2.|-3-3-1-1-0-------------|
3.|-----------------------|

1.|-----------------------|
2.|-5-3-5-3-5-3-5-3-1-0---|
3.|---------------------2-|

1.|-----------------------|
2.|-5-5-5-3-1-5-----------|
3.|-----------------------|

1.|-----------------------|
2.|-3-3-1-1-0-------------|
3.|-----------------------|

1.|-----------------------|
2.|-5-3-5-3-5-3-5-3-1-0---|
3.|---------------------2-|


1.|------------------|
2.|-6-5-3-6-5--------|
3.|------------------|

1.|-3-5-1--5-3-1-1-0-|
2.|------------------|
3.|------------------|

1.|------------------|
2.|-5-6-5-3----------|
3.|------------------|

1.|------------------|
2.|-3/5-3-1-0--------|
3.|-----------2------|

    Am
Es posible olvidarte a ti,
      E7
Es posible


Aunque sea grande mi dolor
               Am
Por ti, te olvidare.


A7               Dm
Yo no tengo la culpa, no
            Am
Siempre te quise
       Dm
Me engañaste
          Am
Tu me engañaste
        E7                Am
Fuiste mala, mala con mi amor.


A7              Dm
Yo no tengo la culpa no,
            Am
Siempre te quise
    Dm            Am
Mentiste, tu te reíste
      E7        Am
De mi pobre corazón.


             E7
Yo no tengo la culpa no
          Am
No tengo la culpa
             E7              Am
Yo no tengo la culpa no, no, no
Suggest correction
Give kudos to tab author, rate the tab!
1 2 3 4 5
comments
print report bad tab
guest
You may want to rate the tab now too:
select rating
Wanna post a correction for this tab? Suggest correction