Oops, an error
Loading. Please wait.

Historia De Amor Tab

20 views 1 this week
no commentswrite comment
1 2 3 4 5
3 more votes to show rating
add to favorites
launch autoscroll
font size
0
reset
how to read this tab
guitar tuner
Autoscroll
slow
fast
+/-
esc
set tempo
stop
Help us to improve Ultimate-Guitar.com Take our survey!
×
Esta cancion la saque de oido, espero y la disfruten.

   A       E          A       E               A
 E--------------------------------------------------
 B--------------------------------------------------
 G------------------------------------7-7-5-3-5-----
 D-4-5-6---6-7-8------4-5-6---6-7-8-----------------
 A -------------------------------------------------
 E--------------------------------------------------

     A                     (Riff 1)
 Historia de amor, que un dia empezo.
 (Riff 1)          (Riff 2)    E    (Riff 3)
 Tristeza y dolor, es lo que quedo.
 
 Me fui de su lado, deje que sufriera.
                     (Riff 1)       A   (Riff 3)
 No quise escucharla y parti sin razon.

                    (Riff 1)
 El tiempo pasaba y yo recordaba.
 (Riff 1)           (Riff 2)    E     (Riff 3)
 Aquel gran cariño, que un dia deje.

 Y la soledad, en que yo me encontraba.
                    (Riff 1)         A   (Riff 3)
 Hizo que volviera, a buscarla otra vez.

               A   (RiFF 1)
 Regreso al lugar, donde la deje.
 (Riff 1)           (Riff 2)   E
 Pregunto por ella. Me dicen asi.

 La joven que buscas, ya no la veras.
                     (Riff 1)        A    (Riff 3)
 Murio pronunciando, tu nombre al final.

                     
                     (Riff 1)
 Yo soy el culpable, de lo que paso.
 (Riff 1)              (Riff 2)  E       (Riff 3)
 Llorando en silencio, hoy pido perdon.

 La pena que llevo, no me dejara.  
                    (Riff 1)      E
 Y solo en la vida, mi amor quedara.


   A       E           A       E           A A
 E-----------------------------------------0-0----- 
 B-----------------------------------------2-2-----
 G-----------------------------------------2-2-----
 D-4-5-6---6-7-8-------4-5-6---6-7-8-------2-2-----
 A-----------------------------------------0-0-----
 E-----------------------------------------0-0-----


(Riff 1):                    (Riff 2):

E---9-\6--6\3----3---|       E---9-9-7--5/6---|
B---10\8--8\4----4---|       B----------------|
G--------------------|       G---9-9-7--5/6---|


    (Riff 3):
       
    E--9-9-7-9-7---6-6-4-6-4---3-3-1-3-1-0--|
    B---------------------------------------|
    G---------------------------------------|


Ahi esta otra cancion mas. Hasta pronto.
Suggest correction
Give kudos to tab author, rate the tab!
1 2 3 4 5
comments
print report bad tab
guest
You may want to rate the tab now too:
select rating
Wanna post a correction for this tab? Suggest correction