Oops, an error
Loading. Please wait.

Largo Camino Tab

19 views 1 this week
no commentswrite comment
1 2 3 4 5
3 more votes to show rating
add to favorites
launch autoscroll
font size
0
reset
how to read this tab
guitar tuner
×
Best way to learn
"Largo Camino"
Autoscroll
slow
fast
+/-
esc
set tempo
stop
Armoniza en LA menor
   Am                            Dm               E            Am
e-----------------------------------------------------------------
B-5-3-5-3---5--5-5-3-5-3---5---5-6-5-6-5-3-6--6-6-5---------------
G---------5--------------5--------------------------5-5-4--4-4-2--
D-----------------------------------------------------------------
A-----------------------------------------------------------------
E-----------------------------------------------------------------
   Am                           Dm                E           Am
e------------------------------------------------------------------5-
B------------------------------------------------------------------5-
G------------------------------------------------------------------5-
D-2-0-2-0---2--2-2-0-2-0---2---2-3-2-3-2-0-3--3-3-2------------------
A---------3--------------3--------------------------3-3-2--2-2-0-----
E--------------------------------------------------------------------
  Am         Dm    G               C    F     Dm       E         Am       E        Am  
e-5-----5----------3---------------1--0-1-1-0----------3/4-------3/5------3/4------3/5-
B---5-5---5-5/6--6---3-3-3-5-6-5--1-----------3--6-6-5-----6-6-5-----6-6-5----6-6-5----
G--------------------------------------------------------------------------------------
D--------------------------------------------------------------------------------------
A--------------------------------------------------------------------------------------
E--------------------------------------------------------------------------------------
  Am                   G       F         E  Am                    G       F       E
e------------------5-5-3---3-3-1---0-1-1-0--------------------5-5-3---3-3-1---1-1-0-
B------------5-5-5-------3-------1----------------------5-5-5-------3-------1-------
G-------5-5-5-------------------------------------5-5-5-----------------------------
D-7-7-7-------------------------------------7-7-7-----------------------------------
A-----------------------------------------------------------------------------------
E-----------------------------------------------------------------------------------
  Am                    E                 Am                E                 Am
e-------------------5-5-4-7-4-4-7-4-7-4-7-5-8-5-5-8-5-8-5-8-4-7-4-4-7-4-7-4-7-5-8-5-5-8-5-8-5-8-
B-------------5-5-5-----------------------------------------------------------------------------
G-------5-5-5-----------------------------------------------------------------------------------
D-7-7-7-----------------------------------------------------------------------------------------
A-----------------------------------------------------------------------------------------------
E-----------------------------------------------------------------------------------------------
Las notas en [ ] es el teclado y las notas en  son teclado y guitarra
  E                                                    Am                 E                
e-7-4------------------------------[4-7-4-4-7-4-7-4-7]-5-8-5-5-8-5-8-5-8-4-7-4-4-7-4-7-4-7-
B-----6-5------------------------------------------------------------------------------------
G---------7-5-4------------------------------------------------------------------------------
D---------------7-6--------------------------------------------------------------------------
A-------------------8-7-5--------------------------------------------------------------------
E-------------------------8-7-5-4------------------------------------------------------------
  Am                                                      E
e-17-17-17-16-16-16-15-15-15-14-14-14-13-13-13-12-11/12--[4-7-4-4-7-4-7-4-7]-
B----------------------------------------------------------------------------
G----------------------------------------------------------------------------
D----------------------------------------------------------------------------
A----------------------------------------------------------------------------
E----------------------------------------------------------------------------
  Am                 E            
e-[5-8-5-5-8-5-8-5-8-4-7-4-4-7-4-7-4-7]-
B---------------------------------------
G---------------------------------------
D---------------------------------------
A---------------------------------------
E---------------------------------------
FINAL
(las primeras notas, se tocan al mismo tiempo que el teclado esta tocando
el renglon de arriba,y las notas otras son la guitarra para terminar la cancion) 
                                            Am
e-11/12--11/12--11/12--11/12-17--12--5--5---5-
B------------------------------------5--5---5-
G--8/9----8/9----8/9----8/9--14---9--5--5---5-
D-------------------------------------------7-
A-------------------------------------------7-
E-------------------------------------------5-
Suggest correction
Give kudos to tab author, rate the tab!
1 2 3 4 5
comments
print report bad tab
guest
You may want to rate the tab now too:
select rating
Wanna post a correction for this tab? Suggest correction