Oops, an error
Loading. Please wait.

Mi Alma Reclama Chords

version 1
version 1

Whole song

58 views 1 this week
no commentswrite comment
1 2 3 4 5
3 more votes to show rating
add to favorites
launch autoscroll
font size
0
reset
transpose
0
reset
display chords
guitar tuner
Autoscroll
slow
fast
+/-
esc
set tempo
stop
Help us to improve Ultimate-Guitar.com Take our survey!
×
Armoniza en SOL menor

(Este parte se repite dos veces)           
e--6--8--10--8--6--10--6---------
B--8-10--11-10--8--11--8---------
G--------------------------------
D--------------------------------
(A la tercera vez se toca esto)

e--6--8--10--8--6--10--6--5---3--2------------
B--8-10--11-10--8--11--8--7---4--3------------
G---------------------------------------------
D---------------------------------------------

e---------------------------------------------
B--3-3-3-2-3-4--------4---3--------3---1------
G--------------5--5-5---5---3--3-3---3---2----
D---------------------------------------------

e-------------------
B-------------------
G--2-3-2------------
D---------5-4-5-----
Gm                              Cm F
He tenido en mi vida muchos amores... he tenido
                        A#   Gm              
fortuna y he tenido placeres...Casi mil 
    Cm    F             A#  Gm              Cm  D
corazones... me han adorado... Pero hoy ninguna-a
            Gm
esta a mi lado.
                                   Cm   F
La mujer siempre buena, a mi me quieria... y yo como 
                     A# Gm                    Cm  F
siempre amor les fingia...Quien te cres que eres?
            A#  Gm                    A#  D 
Hoy me pregunto... que engañas y mientes-es como 
    Gm 
ninguno.
            Cm                 F 
Mi alma reclama, reclama con llanto, porque si 
 A#     Gm               Cm        F
tenia amor, porque si o hera el mejor. Hoy estaba
 A#           Gm            Cm            F
solo, solo, solo. No tenia nada, nada, nada. Hasta
         A#                 Gm                 Cm
hoy comprendo que todo se paga, hasta hoy comprendo
               D              Gm            Cm
porque mi corazon se esta muriendo, de soledad, 
        F  A#          Gm
de soledad-ad esta muriendo.
Suggest correction
Give kudos to tab author, rate the tab!
1 2 3 4 5
comments
print report bad tab
guest
You may want to rate the tab now too:
select rating
Wanna post a correction for this tab? Suggest correction