Oops, an error
Loading. Please wait.

Nadie Se Muere De Amor Tab

34 views 1 this week
no commentswrite comment
1 2 3 4 5
3 more votes to show rating
add to favorites
launch autoscroll
font size
0
reset
how to read this tab
guitar tuner
Autoscroll
slow
fast
+/-
esc
set tempo
stop
Help us to improve Ultimate-Guitar.com Take our survey!
×
Intro de la canción

e|------------------12v-|
B|-9-9-11-11s12-11-9----|
G|----------------------|
D|----------------------|
A|----------------------|
E|----------------------|


e|---------------10s11v-|
B|-7-7-9-9s11-9-7-------|
G|----------------------|
D|----------------------|
A|----------------------|
E|----------------------|


e|--------------9v-|
B|-5-5-7-7s9-7-5---|
G|-----------------|
A|-----------------|
D|-----------------|
E|-----------------|


e|---9-----------------------------|
B|-11-12-11-11s12s11-9--9--9s109-8-|
G|---------------------------------|
A|---------------------------------|
D|---------------------------------|
E|---------------------------------|

Esta parte entra en el minuto (2:09)
e|------------------12v-|
B|-9-9-11-11s12-11-9----|
G|----------------------|
D|----------------------|
A|----------------------|
E|----------------------|

e|----------------------|
B|-12-11--7-7h9---------|
G|----------------------|
D|----------------------|
A|----------------------|
E|----------------------|

Así termina la canción
e|----------------------|
B|-9-9-11-11s12-11------|
G|-----------------66h8-|
D|----------------------|
A|----------------------|
E|----------------------|

Tablatura sacada por Danya 292721,si
quieres ayuda sobre la tablatura de
alguna canción, escríbeme a
danmil292721@
tal vez pueda ayudarte.

aaaaaaaaadios!!!!
Suggest correction
Give kudos to tab author, rate the tab!
1 2 3 4 5
comments
print report bad tab
guest
You may want to rate the tab now too:
select rating
Wanna post a correction for this tab? Suggest correction