Oops, an error
Loading. Please wait.

No Me Hace Falta Tu Amor Tab

14 views 3 this week
no commentswrite comment
1 2 3 4 5
3 more votes to show rating
add to favorites
launch autoscroll
font size
0
reset
how to read this tab
guitar tuner
Autoscroll
slow
fast
+/-
esc
set tempo
stop
Help us to improve Ultimate-Guitar.com Take our survey!
×
Armoniza en Re mayor

e-5-5-5-12-10-7--9---9--9--9-10--9-7-5-
B-7-7-7-14-12-8-10--10-10-10-12-10-8-7-
G--------------------------------------
D--------------------------------------
A--------------------------------------
E--------------------------------------

e-5-5-5-12-10-7--9--12-10--9-7-3-2-
B-7-7-7-14-12-8-10--14-12-10-8-5-3-
G----------------------------------
D----------------------------------
A----------------------------------
E----------------------------------
Suggest correction
Give kudos to tab author, rate the tab!
1 2 3 4 5
comments
print report bad tab
guest
You may want to rate the tab now too:
select rating
Wanna post a correction for this tab? Suggest correction