Oops, an error
Loading. Please wait.

Noche Callada Tab

12 views 3 this week
no commentswrite comment
1 2 3 4 5
3 more votes to show rating
add to favorites
launch autoscroll
font size
0
reset
how to read this tab
guitar tuner
Autoscroll
slow
fast
+/-
esc
set tempo
stop
Help us to improve Ultimate-Guitar.com Take our survey!
×
Noche Callada (Re mayor)
(este renglon se toca 2 veces)
e-10-10-10-10-10-10-9-10-12-9---9-9-9-9-9-10-9-------10-
B----------------------------------------------12-10----
G-------------------------------------------------------
D-------------------------------------------------------
A-------------------------------------------------------
E-------------------------------------------------------

e----------------10-10-9------9-9-9-9-9-10-9-------10-
B-10-10-10-10-10--------12-12----------------12-10----
G-----------------------------------------------------
D-----------------------------------------------------
A-----------------------------------------------------
E-----------------------------------------------------

e---------------------------10--10-9---------------------
B-------10-10-12-10------10----------12-12-10------------
G-11-12-------------12-11---------------------12-11-9----
D-----------------------------------------------------12-
A--------------------------------------------------------
E--------------------------------------------------------
Final
( Se toca el requinto completo, pero al llegar al final se toca estas notas)
e----------------
B-10-------------
G----12-11-9-----
D-------------12-
A----------------
E----------------
Suggest correction
Give kudos to tab author, rate the tab!
1 2 3 4 5
comments
print report bad tab
guest
You may want to rate the tab now too:
select rating
Wanna post a correction for this tab? Suggest correction