Oops, an error
Loading. Please wait.

Olvidar Asi Chords

18 views 1 this week
no commentswrite comment
1 2 3 4 5
3 more votes to show rating
add to favorites
launch autoscroll
font size
0
reset
transpose
0
reset
simplify chords
display chords
guitar tuner
Autoscroll
slow
fast
+/-
esc
set tempo
stop
Help us to improve Ultimate-Guitar.com Take our survey!
×
Armoniza en Re mayor
Introducion

e-5-3-2-0----------------------0-2---2--
B---------3--3-2-0-----------0-------3--
G------------------2-0---0-2---------2--
D---------------------------------------
A---------------------------------------
E---------------------------------------
  D                       G
Apenas hace unos cuantos dias
             A              D
yo era para ti, lo mas importante
               G       D
El amor de tu vida, decias
          A           Bm     D
y que sin mi... tu no vivias.

Hoy te encuentro del brazo
            G             A
de el y lo besas, dime entonces
                      D
adonde se fue tanto amor

tu que siempre me hiciste
     D7            G
creer... que eras buena
        A
en tus ojos por fin pude ver
 D
me engañaste.
G
No se puede olvidar asi
    D                G
a quien amas, era mentira tu
                     A
amor por mi, y no comprendo
      D
como cai.
       G            A
Era mentira, era mentira.
(Intermedio, este requinto se repite dos veces.)                
e-----0-2-----------------------2-7----5-7--5------
B------------------3-3-2------3-----7-8-------7--5-
G-2-2-----2-2-4-0-------4---4----------------------
D--------------------------------------------------
A--------------------------------------------------
E--------------------------------------------------
(Se repiten todos los versos desde...)

Hoy te encuentro....etc.
(Final)
     Bm      G   A
Que tonto... oh, uh.
Suggest correction
Give kudos to tab author, rate the tab!
1 2 3 4 5
comments
print report bad tab
guest
You may want to rate the tab now too:
select rating
Wanna post a correction for this tab? Suggest correction