Oops, an error
Loading. Please wait.

Pobre Tonto Enamorado Tab

58 views 1 this week
no commentswrite comment
1 2 3 4 5
3 more votes to show rating
add to favorites
launch autoscroll
font size
0
reset
how to read this tab
guitar tuner
Autoscroll
slow
fast
+/-
esc
set tempo
stop
Help us to improve Ultimate-Guitar.com Take our survey!
×
Armoniza en Re mayor

e-----------------------------------------------
B------------7-5----------7-----------7---------
G----------7-----6-4----7-----------7-----------
D--4-5-7-7-----------7------7-7-4-5-----7-7-4-5-
A-----------------------------------------------
E-----------------------------------------------


e--------5-5-5-5-------------5---------------------
B---7----7-7-7-7--8-8--7---5-----------------------
G-7---------------9-9--7--6---?6/7-4--4-6/7-6-4----
D-----7------------------------------------------7-
A--------------------------------------------------
E--------------------------------------------------


e------------------------------------------------5-----10--
B--7-5------3-3---------3----------------------5-----10--
G------7-6--4-4--4-4-4--4--6-6-6--10-?9-8-7--6----11------
D----------------5-5-5-----7-7-7--11-10-9-7--------------
A--------------------------------------------------------
E--------------------------------------------------------
Suggest correction
Give kudos to tab author, rate the tab!
1 2 3 4 5
comments
print report bad tab
guest
You may want to rate the tab now too:
select rating
Wanna post a correction for this tab? Suggest correction