Oops, an error
Loading. Please wait.

Por Primera Vez Tab

10 views 1 this week
no commentswrite comment
1 2 3 4 5
3 more votes to show rating
add to favorites
launch autoscroll
font size
0
reset
how to read this tab
guitar tuner
Autoscroll
slow
fast
+/-
esc
set tempo
stop
e---9--9-9-11--11-11-9-----------------9-9-9-------------
B----------------------12--12-12-10-9-------12-10-9----9-
G-9-------------------------------------------------11---
D--------------------------------------------------------
A--------------------------------------------------------
E--------------------------------------------------------

e---9--9-9-11--11-11-9-----------------9-9-9--------------
B----------------------12--12-12-10-9--------12-10-9------
G-9--------------------------------------------------11-9-
D---------------------------------------------------------
A---------------------------------------------------------
E---------------------------------------------------------
Suggest correction
Give kudos to tab author, rate the tab!
1 2 3 4 5
comments
print report bad tab
guest
Wanna post a correction for this tab? Suggest correction