Oops, an error
Loading. Please wait.

Si Quiero Volver Tab

version 1
version 1

Whole song

26 views 1 this week
no commentswrite comment
1 2 3 4 5
3 more votes to show rating
add to favorites
launch autoscroll
font size
0
reset
how to read this tab
guitar tuner
Autoscroll
slow
fast
+/-
esc
set tempo
stop
Help us to improve Ultimate-Guitar.com Take our survey!
×
Armoniza en LA mayor

e--0--0--0-----0--0---4--4--4--4--4--3--2--2----
B--2--2--2--3--2--2---5--5--5--5--5--4--3--3----
G-----------4-----------------------------------


e--2--0-----2--2--2--2--0--2--4--4--4--4--5--7---
B--3--2--3--3--3--3--3--2--3--5--5--5--5--7--9---
G--------4---------------------------------------


e---9---9--5--4----------
B--10--10--7--5----------
G------------------------
Suggest correction
Give kudos to tab author, rate the tab!
1 2 3 4 5
comments
print report bad tab
guest
You may want to rate the tab now too:
select rating
Wanna post a correction for this tab? Suggest correction