Oops, an error
Loading. Please wait.

Si Quiero Volver Tab

version 2
version 2

Whole song

51 views 1 this week
no commentswrite comment
1 2 3 4 5
3 more votes to show rating
add to favorites
launch autoscroll
font size
0
reset
how to read this tab
guitar tuner
×
Best way to learn
"Si Quiero Volver"
Autoscroll
slow
fast
+/-
esc
set tempo
stop
Armoniza en Re menor.
Les mando el requinto de intermedio porque el otro
esta mal.


  INTRO: (Se acompaña con D,Em,G,A,Dm)


En donde puse Dm se toca esto antes de empezar la rola

       Dm
   E|---1-----1-----3-----3-----|
   B|----3-----3-----3-----3----| 
   G|-----2-----2-----2-----2---|
 

Verso 1

                   Dm                  Gm
 *Preguntando por ti, me di cuenta de todo.
                                       |
    E--------------1----1----1----1----|----
    B---------------3----3----3----3---|----
    G----------------2----2----2----2--|----
                                       v
 
               C                   F       F Em Am
 Que aun me quieres, que aun me quieres.


Verso 2
 
                   Dm            Gm
 *Preguntando por ti, supe que lloras.
                                 |
    E--------------1--1--1--1----|---------
    B---------------3--3--3--3---|---------
    G----------------2--2--2--2--|---------
                                 v

       C                 F    F Em Am
 Que lloras, lloras por mi.


Verso 3

                  Dm                  Gm
 *Mas no quise saber, pero en mi corazon.
                                      | 
     E------------1----1----1----1----|----
     B-------------3----3----3----3---|----
     G--------------2----2----2----2--|----
                                      v

                C                F     A7  D
 Sin querer nacio, de nuevo el amor.


Coro

                  D
 Y hoy te quiero ver,
                Em
 Solo quiero saber.
                G                   A7
 Porque me engañaste, porque te burlaste
                 D    A7
 Y te fuiste con el.

            A7             D
 Por Dios que...te quiero ver.
            Em
 Te quiero ver,
                      G                   A
 Que mi orgullo se quiebra y si tu me lo pides
               D
 Si quiero volver.


INTERMEDIO

  E--------------------------------------------------|          
  B---1/7-7-7-5-3-5/7--7-7-7-7/10-10-10-9-7--7-7-7---|
  G--------------------------------------------------|

  E-----------------------------------------------------|
  B---7-5-3-5/7--7-7-7-5-7-7/9--9/11-11-9-11-11/12-12---|
  G-----------------------------------------------------|
  
Se repite intro:  D,Em,G,A,Dm

       Dm
   E|---1-----1-----3-----3-------|
   B|----3-----3-----3-----3------|
   G|-----2-----2-----2-----2-----|


Verso 3

                  Dm                  Gm
 *Mas no quise saber, pero en mi corazon.
                                      |
     E------------1----1----1----1----|----
     B-------------3----3----3----3---|----
     G--------------2----2----2----2--|----
                                      v

                C                F     A7  D
 Sin querer nacio, de nuevo el amor.


Coro

                  D
 Y hoy te quiero ver,
                Em
 Solo quiero saber,
                G                   A
 Porque me engañaste, porque te burlaste
                 D      A7
 Y te fuiste con el.

            A7             D
 Por dios que...te quiero ver.
            Em
 Te quiero ver.
                      G                   A
 Que mi orgullo se quiebra y si tu me lo pides,
           A
 Eres mi reina...
                 D    Dm
 Y si quiero volver.
Suggest correction
Give kudos to tab author, rate the tab!
1 2 3 4 5
comments
print report bad tab
guest
You may want to rate the tab now too:
select rating
Wanna post a correction for this tab? Suggest correction