Oops, an error
Loading. Please wait.

Soy Un Solitario Tab

version 2
version 2

Whole song

40 views 1 this week
no commentswrite comment
1 2 3 4 5
3 more votes to show rating
add to favorites
launch autoscroll
font size
0
reset
how to read this tab
guitar tuner
Autoscroll
slow
fast
+/-
esc
set tempo
stop
Help us to improve Ultimate-Guitar.com Take our survey!
×
Aqui les mando una cancion muy sencilla espero 
y les guste.

   E       G#m   A       B7   E       G#m  A       B7
 E----------------------------------------------------
 B---------0-0---2--------------------0-0--2----------
 G-1-1-1-1---------2-2-1------1-1-1-1--------2-2-1----
 D-----------------------4-------------------------4--
 A----------------------------------------------------
 E----------------------------------------------------


  E          G#m
 Soy un solitario.

   A            B7
 Que no tengo amor.

  E               G#m
 Solo tristes recuerdos

          A             B7
 De un cariño que me dejo.


      C#m A        B7
 Era mia, era mi amor.

      C#m A        B7 
 Era mia, era mi amor.


  E              G#m 
 Si pudiera olvidarla.

 A              G#m
 Y no quererla mas.

  E             G#m 
 He tratado con otra.

  A              B7
 Pero nada es igual.


  E             G#m
 He tratado con otra.

  A              B7
 Pero nada es igual.

        E          G#m  
 Y hoy soy un solitario.

   A            B7
 Que no tengo amor.


   E       G#m  A        B7    E       G#m  A       B7 
 E----------------------------------------------------
 B---------0-0--2----------------------0-0--2---------
 G-1-1-1-1--------2-2-1-------1-1-1-1---------2-2-1---
 D-----------------------4--------------------------4-
 A----------------------------------------------------
 E----------------------------------------------------


  E              C#m
 Si pudiera olvidarla.

 A              B7
 Y no quererla mas.

  E             C#m
 He tratado con otra.

  A              B7
 Pero nada es igual.


  E             G#m
 He tratado con otra.

  A              B7
 Pero nada es igual.

        E          G#m 
 Y hoy soy un solitario.

   A            B7
 Que no tengo amor.


  E               G#m
 Solo tristes recuerdos.

          A             B7
 De un cariño que me dejo.

      G#m A        B7
 Era mia, era mi amor.

      C#m A        B7
 Era mia, era mi amor.

      G#m A        B7
 Era mia, era mi amor.

      C#m  A    B7 - E
 Era mia, mia, mia.


Ahi esta otra cancion de los temerarios.
Suggest correction
Give kudos to tab author, rate the tab!
1 2 3 4 5
comments
print report bad tab
guest
You may want to rate the tab now too:
select rating
Wanna post a correction for this tab? Suggest correction