Oops, an error
Loading. Please wait.

Te Hice Mal Tab

58 views 1 this week
no commentswrite comment
1 2 3 4 5
3 more votes to show rating
add to favorites
launch autoscroll
font size
0
reset
how to read this tab
guitar tuner
×
Best way to learn
"Te Hice Mal"
Autoscroll
slow
fast
+/-
esc
set tempo
stop
Esta cancion es muy bonita y veran que si la escuchan y le ponen sentimiento sera mas facil para tocarla.


Este es el intro para la cancion:
        D                           Bm.
   e -----------------10------10--------7--------------
   b ----------------10-------10--------7-------------
   g ---------------11------------------7--------------
   d -------------12--------------------9--------------
   a -----------------------------------9------------
   E -----------------------------------7------------


   e ---------------------------10--------------------
    b-----7-8-10-12-12-14------10--------------------
    g-------------------------11----------------------
    d----------------------12------------------------
    a-----------------------------------------------
    E-----------------------------------------------


   e ------------------------------------------------
    b--10-10-8-7-5-7-8-11-14-12-12---------------------
    g-----------------------------------------------
    d------------------------------------------------ 
    a------------------------------------------------
    E-----------------------------------------------


   D                  Bm.            G
   No ya no puedo seguir asi te necesito amor para 
         A7     D                      Bm.         G
poder  quiero mi amor, te necesito,es necesario
    A7          Bm.           G                     D
te pido que perdones ya el pasado cuando yo te hice mal
         A7             D              Em.             
te hice  que te hice mal cuando tu solamente me 
                    G                A7
dabas amor, cuando tu me entregabas todo yo te
    Bm.-G A7         D             Em.
 que te hice mal no merezco nada de
  G                   F#m-Bm.  Em.-A7          Bm-G-A7
 que ni con mi vida pagaria tus lagrimas por mi.


  Y ASI SE SIGUE TODA LA CANCION SI TIENEN ALGUNA DUDA O CORRECCION ESCRIBANME A: gueroquijada@

  TRANSCRIPCION DE: ROBERTO FELIX
Suggest correction
Give kudos to tab author, rate the tab!
1 2 3 4 5
comments
print report bad tab
guest
You may want to rate the tab now too:
select rating
Wanna post a correction for this tab? Suggest correction