Oops, an error
Loading. Please wait.

Una Tarde Fue Tab

26 views 1 this week
no commentswrite comment
1 2 3 4 5
3 more votes to show rating
add to favorites
launch autoscroll
font size
0
reset
how to read this tab
guitar tuner
×
Best way to learn
"Una Tarde Fue"
Autoscroll
slow
fast
+/-
esc
set tempo
stop
e------------------------------1-3-5----------1-3-5-
B-3/5-5-5-5-3---3---------3-5--3-5-6-----3-5--3-5-6-
G-------------5-----2-4-5------------4-5------------
D-----------------5---------------------------------
A---------------------------------------------------
E---------------------------------------------------

e---------1-3-5-----------------7-10--8-7-10-
B-----3-5-3-5-6--5/6-5-3--------8-12-10-8-12-
G-4-5--------------------5-4-2---------------
D--------------------------------------------
A--------------------------------------------

e------------------------------1-3-5----------1-3-5-
B-3/5-5-5-5-3---3---------3-5--3-5-6-----3-5--3-5-6-
G-------------5-----2-4-5------------4-5------------
D-----------------5---------------------------------
A---------------------------------------------------
E---------------------------------------------------

e---------1-3-5-----------------7-10--8-7-12-
B-----3-5-3-5-6--5/6-5-3--------8-12-10-8-13-
G-4-5--------------------5-4-2---------------
D--------------------------------------------
A--------------------------------------------
E--------------------------------------------
Suggest correction
Give kudos to tab author, rate the tab!
1 2 3 4 5
comments
print report bad tab
guest
You may want to rate the tab now too:
select rating
Wanna post a correction for this tab? Suggest correction