Oops, an error
Loading. Please wait.

Ya Me Voy Para Siempre Tab

74 views 1 this week
no commentswrite comment
1 2 3 4 5
1 last vote to show rating
add to favorites
launch autoscroll
font size
0
reset
how to read this tab
guitar tuner
×
Best way to learn
"Ya Me Voy Para Siempre"
Autoscroll
slow
fast
+/-
esc
set tempo
stop
Bueno aquí esta el intro de esta canción.

1)-12-12-10-12-14-10----10-10-8-10-12-8-
2)--------------------------------------
3)-12-12-11-12-14-11----11-11-9-11-12-9-
4)--------------------------------------

1)-8-8-7-8-10-8-7-8-7-8-7-8-7-8-7------15-15-14-15-17-14-
2)-------------------------------------17-17-15-17-19-15-
3)-9-9-7-9-11-9-7-9-7-9-7-9-7-9-7------------------------
4)-------------------------------------------------------

1)-14-14-12-14-15-12-10-12-15-14-12-10-8?-7---
2)-15-15-13-15-17-13-12-13-17-15-13-12-10-8---
3)---------------------------------------------
4)---------------------------------------------

este arreglo lo pueden hacer al final del intro y del rekinto
y tambien lo pueden usar como final de la cancion
1)-7-5--3-2--------------
2)-8-7--5-3--1-3--2-0----
3)-------------4--1-0----
4)-----------------------

saaludos desde jimenez , chih
Suggest correction
Give kudos to tab author, rate the tab!
1 2 3 4 5
comments
print report bad tab
guest
You may want to rate the tab now too:
select rating
Wanna post a correction for this tab? Suggest correction