Oops, an error
Loading. Please wait.

Yo Te Amo Tab

58 views 1 this week
no commentswrite comment
1 2 3 4 5
3 more votes to show rating
add to favorites
launch autoscroll
font size
0
reset
how to read this tab
guitar tuner
Autoscroll
slow
fast
+/-
esc
set tempo
stop
Help us to improve Ultimate-Guitar.com Take our survey!
×
Hola de nuevo como estan, ahora les traigo los acordes
originales de esta bonita cancion. Esta se la dedico a
una chava que se llama Belen de Fresnillo, Zac. ella
es mi inspiracion para sacar las canciones.


   Esto se toca al inicio de la cancion.


    E--------------------------------2---------|
    B----7-7/8-7-5-------5/6-5-3------2--------|
    G---7---------------5--------------3-------|
    D--7---------------5-----------------------|
    A-7---------------5------------------------|
    E------------------------------------------|


            F7  F#
 Que facil fue.
               F7
 Olvidarte de mi.
            F#
 Me dejas asi.
                 F7
 Sin importarte nada.
               F#     F7
 Sabiendo que yo...te amo.

        F7   F#
 En verdad.
                  F7
 Yo no se lo que pasara.
              F#
 En mi vida triste.
            F7
 Nadie me quiso jamas.
       F#                F7  Dm
 Solo tu mi amor...solo tu.

        F6
 Nunca nadie.
          G#         F#  F7
 Me dio amor...solo tu.

             F#
 Pero ya te vas.
             F7     Dm
 Tu no me quieres.
      F#
 Mirame.
       F7
 Como sufro por ti.

        F6    G#
 No podria vivir.
     F# F7    
 Aleja-do.
       F#        F7
 Quedate, no te vayas mi amor.
            F6     G#     F7
 No me abandones, yo...te amo.


   E--------------------------------3-4-6/8--------|
   B----7-7/8-7-5-------5-5/6-5-3---4-6-8/9--------|
   G---7---------------5---------------------------|
   D--7---------------5----------------------------|
   A-7---------------5-----------------------------|
   E-----------------------------------------------|


             F#
 Pero ya te vas.
             F7     Dm
 Tu no me quieres.
      F#
 Mirame.
       F7
 Como sufro por ti.

        F6    G#
 No podria vivir.
     F# F7
 Aleja-do.
       F#        F7
 Quedate, no te vayas mi amor.
            F6     G#
 No me abandones, yo........te amo..................

 .....................(Final).......................

.... E-------------------------0---0----------|
     B----5--9-8-7vibrato------0---0----------|
     G---6---9-8-7vibrato------4---0----------|
     D--6----------------------3---2----------|
     A-6-----------------------4---3----------|
     E-------------------------3---3----------|


Acordes utilizados:

      F6 F7  F#  Dm  G#  
  
  E--6---1---2---1---4---------|    
  B--7---1---2---3---4---------|
  G--8---2---3---2---5---------|
  D--8---1---4---0---6---------|
  A--6---3---4---0---6---------|
  E--6---1---2---0---4---------|


Espero y la disfruten y voten por mis colaboraciones.
Suggest correction
Give kudos to tab author, rate the tab!
1 2 3 4 5
comments
print report bad tab
guest
You may want to rate the tab now too:
select rating
Wanna post a correction for this tab? Suggest correction