Oops, an error
Loading. Please wait.

Hormigas Planas Tab

1,925 views 6 this week
no commentswrite comment
1 2 3 4 5
please rate
add to favorites
launch autoscroll
font size
0
reset
how to read this tab
guitar tuner
Tab Pro tools
  • play this tab
  • loop segment
  • change instrument
  • show fretboard
  • metronome
×
Best way to learn
"Hormigas Planas"
Autoscroll
slow
fast
+/-
esc
set tempo
stop
Contributor
Difficulty
intermediate
Los tetas - Hormigas planas
Mamma funk - 1996
Tab por CLD [cald14@hotmail.com]

Help
h – hammer
p – pick off
\ - slide down
x – tap mute 

Fig.1 
00:02

e||---------------------------------------------x--||
B||---------------------------------------------x--||
G||---------------------------------------------12-|| x2
D||---------------------------------------10p12-12-|| 
A||----------------0-9-9-10-10-11-11-12/0-------x--||
E||0-2-3-3-4-4-5/0------------------------------x--||

00:20
e||------------------------------------------------||
B||------------------------------------------------||
G||------------------------------------------------||
D||--------------------7------------------7-8-7----||
A||--------7-2h3h2h3h2-5-6-7--7-2h3h2h3h2-5-6-5----||
E||0-2-3-4-5------------------5--------------------||

e||------------------------------------------------||
B||--------------------------------8-8-8-8-8-8-8-8-||
G||--------------------------------7-7-7-7-7-7-7-7-|| x2
D||-------------7------------------5-5-5-5-5-5-5-5-||
A||-7-2h3h2h3h2-5-6-7--7-2h3h2h3h2-----------------||
E||-5------------------5---------------------------||

Fig.2
00:47

e||--5--5---------5--5------------------------||
B||--5--5---------5--5----------12------------||
G||--5--5---------5--5----------12------------|| 
D||-----------------------------11------------|| 
A||-----------------------------12------------||
E||-------------------------------------------||

Fig.3 
00:57  
                                                                                       
e||--------------------||
B||--12-12-12-12-12----||
G||--12-12-12-12-12----|| x7
D||--11-11-11-11-11----||
A||--12-12-12-12-12----||
E||--------------------||

Fig.4
00:15

e||--------------------||
B||--------------------||
G||-4-4-4-4-5-5-5-4----||
D||-4-4-4-4-5-5-5-4----||
A||-2-2-2-2-3-3-3-2----||
E||--------------------||

Fig.5
01:20

e||-15-15------------------15-15---------------||
B||-14-14--12-13-13-12/13--14-14--12-13-12-13--||
G||-12-12--12-13-13-12/13--12-12--12-13-12-13--||
D||--------11-12-12-11/12---------11-12-11-12--||
A||--------12-13-13-12/13---------12-13-12-13--||
E||--------------------------------------------||

e||-15-15------------------15-15-15-15-15-15---||
B||-14-14--12-13-13-12/13--14-14-14-14-14-14---||
G||-12-12--12-13-13-12/13--12-12-12-12-12-12---|| x2
D||--------11-12-12-11/12----------------------||
A||--------12-12-13-12/13----------------------||
E||--------------------------------------------||

Fig.6
01:38

e||--------------------||
B||--------------------||
G||-4-4-4-4-5-5-5-4----||
D||-4-4-4-4-5-5-5-4----||
A||-2-2-2-2-3-3-3-2----||
E||--------------------||

Fig.7
01:42

e||-------------------------------------------||
B||-^^----------------------------------------||
G||-14-12-14-12-------------------------------||
D||-------------14-13-12----------------------||
A||---------------------15-15-12--------------||
E||-------------------------------------------||

e||-------------------------------------------||
B||-------------------^^----------15-13-15-13-||
G||-------------------14----12-14-------------||
D||----------12h13h14----14-------------------||
A||-12h13h14----------------------------------||
E||-------------------------------------------||

e||-15--15-15—-15—-15--15-15—-15--15-15-------||
B||-14--14-14—-14—-14--14-14—-14--14-14-------||
G||-12--12-12—-12—-12--12-12—-12--12-12-------||
D||-------------------------------------------||
A||-------------------------------------------||
E||-------------------------------------------||

Fig.8
01:58

e||--------------------||
B||--------------------||
G||--4--5--6--7--------||
D||--4--5--6--7--------||
A||--2—-3—-4--5--------||
E||--------------------||

Fig.9
02:00

e||-------------------------------------------||
B||-------------------------------------------||
G||-------------------------------------------||
D||-----------------------------------2-------||
A||---4-5-2-4-2-----2---4-5-2-4-2-4h5---------||
E||-0-----------4h5---0-----------------------||

e||-------------------------------------------||
B||-------------------------------------------||
G||-------------------------------------------|| x2
D||-------------------------------------------|| 
A||---4-5-2-4-2-----2---4-5-2-5h7h5h7h5h7-----||
E||-0-----------4h5---0-----------------------||

Fig.10
02:18 
        
e||-^^-^^--------------------------------------------------||
B||-15-15-----^^-------------------------------------------||
G||--------14-14-14-12----------------------------12-12-14-||
D||-----------14-14----14-12h13h14----------------xx-14-14-||
A||--------------------------------10----------10-12-------||
E||-----------------------------------12-10h12-------------||

e||-^^----------------^^-----------------------------------||
B||-14-14-------------14----------14/2---------------------||
G||-14-14-12----12-12-14-12h14h12h14/2---------------------||
D||----------14------------------------12-14---------------||
A||-----------------------------------------12h13h14-10----||
E||-----------------------------------------------------12-||
                                     ^^
e||-------------------------------12-15--------------------||
B||-------------------------12-14--------------------------||
G||----------14-12-12h13h14--------------------------------||
D||----12-14-----------------------------------------------||
A||-14-----------------------------------------------------||
E||--------------------------------------------------------||

Fig. 11
02:35  
                                                               
e||----------------------------------------------------||
B||-8-8-8------------8-8-8-xxx-8-8-8-----------8-8-----||
G||-7-7-7------------7-7-7-xxx-7-7-7-----------7-7-----|| x2
D||-6-6-6---------5--6-6-6-xxx-6-6-6---------5-6-6-7/0-||
A||-7-7-7-------5----7-7-7-xxx-7-7-7-------5---7-7-7/0-||
E||-------5-6-7----------------------5-6-7---------5/0-||

Fig.12
02:52

e||-------------------------------------------||
B||-------------------------------------------||
G||-------------------------------------------||
D||-----------------------------------2-------||
A||---4-5-2-4-2-----2---4-5-2-4-2-4h5---------||
E||-0-----------4h5---0-----------------------||

e||-------------------------------------------||
B||-------------------------------------------||
G||-------------------------------------------|| 
D||-------------------------------------------|| 
A||---4-5-2-4-2-----2---4-5-2-5h7h5h7h5h7-----||
E||-0-----------4h5---0-----------------------||

e||-------------------------------------------||
B||-------------------------------------------||
G||-------------------------------------------||
D||-----------------------------------2-------||
A||---4-5-2-4-2-----2---4-5-2-4-2-4h5---------||
E||-0-----------4h5---0-----------------------||

                              ^
e||---------------------------5-3-------------||
B||-------------------------------------------||
G||-------------------------------------------||
D||-------------------------------------------||
A||---4-5-2-4-2-----2---4-5-2-----------------||
E||-0-----------4h5---0-----------------------||

e||-------------------------------------------||
B||-------------------------------------------||
G||-------------------------------------------||
D||-----------------------------------2-------||
A||---4-5-2-4-2-----2---4-5-2-4-2-4h5---------||
E||-0-----------4h5---0-----------------------||

e||-------------------------------------------||
B||-------------------------------------8-8/0-||
G||-------------------------------------7-7/0-||
D||-------------------------------------6-6/0-||
A||---4-5-2-4-2-----2---4-5-2-4-5-7-5-7-7-7/0-||
E||-0-----------4h5---0-----------------------||
comments
We did not receive enough feedback on this tab! Please rate:
print report bad tab
1 2 3 4 5
I want to post or [tab]
guest
You may want to rate the tab now too:
select rating
Please do not post tabs as comments. Select "correction" instead!