Oops, an error
Loading. Please wait.

I Like Tab

version 1
version 1

Whole song

18 views 1 this week
no commentswrite comment
1 2 3 4 5
3 more votes to show rating
add to favorites
launch autoscroll
font size
0
reset
how to read this tab
guitar tuner
Autoscroll
slow
fast
+/-
esc
set tempo
stop
Help us to improve Ultimate-Guitar.com Take our survey!
×
Esta guitarra es muy pobre y va haciendo los mismo a 
cada rato exepto en el intro:

Intro:
E|-----------------|-------------------------|
B|--11-------------|-----11----11----11------|
G|-----12-12-13-12-|--12----12----12---------|
D|-----------------|----------------------13-|
A|-----------------|-------------------------|
E|-----------------|-------------------------|


Versos
E|-----------------|  
B|--11-------------|
G|-----12-12-13-12-|
D|-----------------|         X3
A|-----------------|
E|-----------------|

E|-------------------------|
B|-----11----11----11------|
G|--12----12----12---------|
D|----------------------13-|
A|-------------------------|
E|-------------------------|
Suggest correction
Give kudos to tab author, rate the tab!
1 2 3 4 5
comments
print report bad tab
guest
You may want to rate the tab now too:
select rating
Wanna post a correction for this tab? Suggest correction