Oops, an error
Loading. Please wait.

I Like Tab

version 2
version 2

Whole song

14 views 1 this week
no commentswrite comment
1 2 3 4 5
3 more votes to show rating
add to favorites
launch autoscroll
font size
0
reset
how to read this tab
guitar tuner
Autoscroll
slow
fast
+/-
esc
set tempo
stop
Help us to improve Ultimate-Guitar.com Take our survey!
×
esta rola esta facil ademas creo que esta muy completa

Intro 00:00-00:04

e----------------------------------------------
B-----------------------------------------------
G--15--12-12-13-12-12--15-12-15-12-15-12--------      
D-----------------------------------------10-11-
A-----------------------------------------------
E-----------------------------------------------

Riff1 00:04-00:54

e-------------------------------------------------------------------------------------
B-------------------------------------------------------------------------------------
G--15--12-12-13-12-12--15--12-12-13-12-12--15--12-12-13-12-12--15-12-15-12-15-12------      
D--------------------------------------------------------------------------------10-11                 x5
A-------------------------------------------------------------------------------------
E-------------------------------------------------------------------------------------

Riff 2 00:54-01:01

e------------------------------------------------------------------------------------
B------------------------------------------------------------------------------------
G--15--12-12-13-12-12--15--12-12-13-12-12--15--12-12-13-12-12------------------------      
D------------------------------------------------------------------------------------
A------------------------------------------------------------------------------------
E------------------------------------------------------------------------------------

Riff 1 01:45-02:04

e---------------------------------------------------------------------------------------
B---------------------------------------------------------------------------------------
G--15--12-12-13-12-12--15--12-12-13-12-12--15--12-12-13-12-12--15-12-15-12-15-12-------             x2      
D--------------------------------------------------------------------------------10-11
A--------------------------------------------------------------------------------------
E--------------------------------------------------------------------------------------

Riff2 02:04-02:14

e--------------------------------------------------------------------------------
B--------------------------------------------------------------------------------
G--15--12-12-13-12-12--15--12-12-13-12-12--15--12-12-13-12-12--------------------      
D--------------------------------------------------------------------------------
A--------------------------------------------------------------------------------
E--------------------------------------------------------------------------------

02:34-03:14

e---------------------------------------------------------------------------------
B---------------------------------------------------------------------------------
G--15--12-12-13-12-12--15--12-12-13-12-12--15--12-12-13-12-12--15-12-15-12-15-12--      
D---------------------------------------------------------------------------------
A---------------------------------------------------------------------------------
E---------------------------------------------------------------------------------

e---------------------------------------------------------------------------------
B---------------------------------------------------------------------------------
G--15--12-12-13-12-12--15--12-12-13-12-12--15--12-12-13-12-12---------------------      
D---------------------------------------------------------------------------------
A---------------------------------------------------------------------------------
E---------------------------------------------------------------------------------

e------------------------------------------------------------------------------------
B------------------------------------------------------------------------------------
G--15--12-12-13-12-12--15--12-12-13-12-12--15--12-12-13-12-12--15-12-15-12-15-12-----      
D-------------------------------------------------------------------------------10-11
A------------------------------------------------------------------------------------
E------------------------------------------------------------------------------------

e-------------------------------------------------------------------------------
B-------------------------------------------------------------------------------
G--15--12-12-13-12-12--15--12-12-13-12-12--15--12-12-13-12-12-------------------      
D-------------------------------------------------------------------------------
A-------------------------------------------------------------------------------
E-------------------------------------------------------------------------------

Final 03:33-00-04

e------------------------------------------------------------------------------------------
B------------------------------------------------------------------------------------------
G--------15--12-12-13-12-12--15--12-12-13-12-12--15--12-12-13-12-12--15-12-15-12-15-12-----    x2    
D-10-11-------------------------------------------------------------------------------10-11 
A------------------------------------------------------------------------------------------
E------------------------------------------------------------------------------------------

Guitarra 2

e--------------------------------------------------------------------
B-------------------------------------------------------------------
G-------------------------------------------------------------------      
D-------------------------12-11-------------------------11-10---                
A-10-11-13-12-11-10------------10-11-13-12-11-10--------------------
E--------------------------------------------------------------------
                                                                                            X2
e---------------------------------------------------------------------
B---------------------------------------------------------------------
G---------------------------------------------------------------------      
D-------------------------12-11---------------------------------------
A-10-11-13-12-11-10-------------10-11-13-12-11-10--10-11-13-12-11-10-
E--------------------------------------------------------------------


eso es todo espero que les guste 

saludos a sahuayo michoacan mexico
Suggest correction
Give kudos to tab author, rate the tab!
1 2 3 4 5
comments
print report bad tab
guest
You may want to rate the tab now too:
select rating
Wanna post a correction for this tab? Suggest correction