Oops, an error
Loading. Please wait.

Nunca Quedas Mal Con Nadie Bass

227 views 1 this week
no commentswrite comment
1 2 3 4 5
3 more votes to show rating
add to favorites
launch autoscroll
font size
0
reset
guitar tuner
×
Best way to learn
"Nunca Quedas Mal Con Nadie"
Autoscroll
slow
fast
+/-
esc
set tempo
stop
Intro
guitarra: re- sol- la

bajo:
1/--------------------------------|--------------------------------|
2/--------------------------------|--------------------------------|
3/-5-5-0-3-5-5-3-0----------------|-5-5-0-3-5-5-3-0----------------|
4/----------------3-3-0-3-5-5-3-0-|----------------3-3-0-3-5-5-3-0-|
       
1/--------------------------------|-------------|
2/--------------------------------|-------------|
3/-5-5-0-3-5-5-3-0----------------|--------2-5--|
4/----------------3-3-0-3-5-5-3-0-|-3-3-3-3---5-|

CANCION:

Dime....tu te crees que protestas....me aseguras que protestas.
1/--------------------------------|--------------------------------|
2/--------------------------------|--------------------------------|
3/-5-5-0-3-5-5-3-0----------------|-5-5-0-3-5-5-3-0----------------|
4/----------------3-3-0-3-5-5-3-0-|----------------3-3-0-3-5-5-3-0-|
 
tu te crees un rebelde             o algo asiiiii.. 
1/--------------------------------|-------------|
2/--------------------------------|-------------|
3/-5-5-0-3-5-5-3-0----------------|--------2-5--|
4/----------------3-3-0-3-5-5-3-0-|-3-3-3-3---5-|


oye, tu te quejas de la polusión.........
1/--------------------------------|--------------------------------|
2/--------------------------------|--------------------------------|
3/-5-5-0-3-5-5-3-0----------------|-5-5-0-3-5-5-3-0----------------|
4/----------------3-3-0-3-5-5-3-0-|----------------3-3-0-3-5-5-3-0-|
 
1/--------------------------------|-------------|
2/--------------------------------|-------------|
3/-5-5-0-3-5-5-3-0----------------|--------2-5--|
4/----------------3-3-0-3-5-5-3-0-|-3-3-3-3---5-|


criticas a la sociedad, dices tu que todo debería cambiar

1/----------------------------------------|
2/--------------------------------7-7-6-6-|
3/-------5-5--7-7----------------5-5-4-4--|
4/------3-3--5-5--------------------------|

1/----------------------------------------|
2/--------------------------------7-7-6-6-|
3/-------5-5--7-7----------------5-5-4-4--|
4/------3-3--5-5--------------------------|                    

en el escebnario........muera la ciudad y su contaminación
1/----------------------------------|
2/---------------------------4-4----|
3/-------5-5--7-7-------5-5-2-2-----|
4/------3-3--5-5-------3-3----------|

con tus lindas melodías y romantica simpatía
1/------------------------------------------------|
2/------------------------------------------------|
3/-------5-5--7-7----------------------------2-5--|
4/------3-3--5-5---------------------3-3-3-3-----5| 

Coro:
1/--------------------------------|--------------------------------|
2/--------------------------------|--------------------------------|
3/-5-5-0-3-5-5-3-0----------------|-5-5-0-3-5-5-3-0----------------|
4/----------------3-3-0-3-5-5-3-0-|----------------3-3-0-3-5-5-3-0-|
       
1/--------------------------------|-------------|
2/--------------------------------|-------------|
3/-5-5-0-3-5-5-3-0----------------|--------2-5--|
4/----------------3-3-0-3-5-5-3-0-|-3-3-3-3---5-|

me aburrió tu postura intelectual....
1/--------|---------|
2/--------|---------|
3/-----5-4|-----5-4-|
4/-3-5----|-3-5-----|

contradices toda tu protesta famosa....
1/------------------------------------|
2/----------------4-4-----------------|
3/--5-5-7-7--5-5-2-2---5-5--7-7-------|
4/-3-3-5-5--3-3-------3-3--5-5--3333--|

Coro:

intermedio
1/------------------|--------------|
2/------------------|--------------|
3/-5-5--------5-5-5-|5---------555-|
4/----3-3-5-5-------|--3-3-5-5-----|


comete tu miedo a la bomba de neutrones.....
1/------------------|--------------|
2/------------------|--------------|
3/-5-5--------5-5-5-|5---------555-|
4/----3-3-5-5-------|--3-3-5-5-----|


nunca quedas mal, quedas mal con nadie......
1/--------------------------------|--------------------------------|
2/--------------------------------|--------------------------------|
3/-5-5-0-3-5-5-3-0----------------|-5-5-0-3-5-5-3-0----------------|
4/----------------3-3-0-3-5-5-3-0-|----------------3-3-0-3-5-5-3-0-|
       
1/--------------------------------|-------------|
2/--------------------------------|-------------|
3/-5-5-0-3-5-5-3-0----------------|--------2-5--|
4/----------------3-3-0-3-5-5-3-0-|-3-3-3-3---5-|


nunca quedas mal con, 
1/-------------|
2/-------------|
3/--------2-5--|
4/-3-3-3-3-----|

nunca quedas mal con
1/-------------|
2/-------------|
3/--------2-5--|
4/-3-3-3-3-----|

nunca quedas mal con nadie
1/-------------|
2/-------------|
3/--------2-5--|
4/-3-3-3-3---5-|
Suggest correction
Give kudos to tab author, rate the tab!
1 2 3 4 5
comments
print report bad tab
guest
You may want to rate the tab now too:
select rating
Wanna post a correction for this tab? Suggest correction