Oops, an error
Loading. Please wait.

Sex Funk Bass

292 views 1 this week
no commentswrite comment
1 2 3 4 5
3 more votes to show rating
add to favorites
launch autoscroll
font size
0
reset
guitar tuner
×
Best way to learn
"Sex Funk"
Autoscroll
slow
fast
+/-
esc
set tempo
stop
Canción mas seca no hay

Intro (bajo solo y bien rápido)
G------------------------------------------------------------------
D-------------5-------777-55-5h7-------------5---------------------
A-77-7-55-7-55--7-77-5-----------77-7-55-7-55--7-77-5--------------
E----------------------------------------------------7-5-33-3-5----

G-----------------------------------------------------------
D-------------5-------777-55-5h7-------------5--------------
A-77-7-55-7-55--7-77-5-----------77-7-55-7-55--7-777777777--
E-----------------------------------------------------------

Entra la guitarra en distorsión (slap y pop)
G---------------------------------------------------------------7--7--
D---------------5----------------------------5------------------------
A?5h7-7-55-77-5--7-5h7-77-5-----5h7-7-55-77-5--7-5h7-7-55-7-0-5--5----
E---------------------------7-5---------------------------------------

G---------------------------------------------------------------
D---------------5----------------------------5------------------
A?5h7-7-55-77-5--7-5h7-77-5-----5h7-7-55-77-5--7-5h7-7-0-555----
E---------------------------7-5---------------------------------

Verso repite artas veces (slap y pop)
(no me tientes zorra, no me tientes zorra...)
G------------------------------------------------7--7---
D-------------------------------------------------------
A-0--0-5-0-5-7-0?-0-5-3--0--0-5-0-5-7-0--0-5-0-5--5-----
E-------------------------------------------------------

Interludio (no me tientes zorra, que no lo ves...)
G-------------------------------------------------------------
D--------------------------------------------5----------------
A-000000000/131313131313----?5h7-7-55-77-5--7-5h7-77-5--------
E--------------------------------------------------------7-5--

G-------------------------------------------------------------
D--------------------------------------------5----------------
A-000000000/131313131313----?5h7-7-55-77-5--7-5h7-7-0-55555---
E-------------------------------------------------------------

Sigue un verso

Un solo (esta parte ta maomenos)
G----------------------------------------------
D-----7~---7-----2--5---7--2--5---7--2--5------
A----------------------------------------------
E-5-x----5x-x--0---3--5---0--3--5--0?-3x--x----

Interludio (no me tientes zorra, que no lo ves...)
G-------------------------------------------------------------
D--------------------------------------------5----------------
A-000000000/131313131313----?5h7-7-55-77-5--7-5h7-77-5--------
E--------------------------------------------------------7-5--

G-------------------------------------------------------------
D--------------------------------------------5----------------
A-000000000/131313131313----?5h7-7-55-77-5--7-5h7-7-0-55555---
E-------------------------------------------------------------

(UUUUUUUhhhhhhhhhhh)
G-----------------------------
D----------5-7---------4--6--- asi sigue 8 veces
A--5-55-5h7----4-44-4h6------- hasta un slide y empieza
E----------------------------- otra forma en re y do#
                               como estaba aqui
Asi termina
G-----------------------
D------------4-666-4-----
A--5-55-555-4-----------
E-----------------------
Suggest correction
Give kudos to tab author, rate the tab!
1 2 3 4 5
comments
print report bad tab
guest
You may want to rate the tab now too:
select rating
Wanna post a correction for this tab? Suggest correction