Oops, an error
Loading. Please wait.

Corazon De Oro Tab

157 views 3 this week
no commentswrite comment
1 2 3 4 5
3 more votes to show rating
add to favorites
launch autoscroll
font size
0
reset
how to read this tab
guitar tuner
×
Best way to learn
"Corazon De Oro"
Autoscroll
slow
fast
+/-
esc
set tempo
stop
Riff 1
e -------------------------------------
B ----------------7--7---5--3--5--5----
G ----------2-2---7--7---6--4--6--6--4-
D -4--4--2--4-4----------------------5-
A -5--5--0-----------------------------
E -------------------------------------


Riff 2
e 3-2-3--5-5--12-12---10--9--7--3--2--
RE  LA7  RE  LA7(esto acompaña al segundo riff)


RE                           LA7                        RE
En medio de mis locos desvaríos, amaba una mujer idolatrada

                 RE7         SOL                    RE        LA7      RE7
Le di mi amor creyendo que me amaba, pero hoy se burla de mi pobre corazón

e 3-2-3--5-5--12-12
                            LA7                                RE
A ti por se infiel yo te perdono y tu que eres mujer lo ignoras todo
e 3-2-3--5-5--12-12
                  RE7        SOL         RE         LA7         RE
Si dios te dio un corazón de oro, a mi me dio un corazón para sufrir

B ----------------7--7---5--3--5--5----
G ----------2-2---7--7---6--4--6--6--4-
D -4--4--2--4-4----------------------5-
A -5--5--0-----------------------------
E -------------------------------------

Riff 2
e 3-2-3--5-5--12-12---10--9--7--3--2--

RE                         LA7                               RE
Mal digo su sonrisa y su mirada maldigo las caricias que me hacia
e 3-2-3--5-5--12-12

                  RE7        SOL               RE       LA7        RE
Mal digo a si los besos que me daba, maldigo la hora en que yo la conocí
e 3-2-3--5-5--12-12

                           LA7                                RE
A ti por se infiel yo te perdono y tu que eres mujer lo ignoras todo
e 3-2-3--5-5--12-12

                  RE7        SOL         RE         LA7         RE
Si dios te dio un corazón de oro, a mi me dio un corazón para sufrir
e 3-2-3--5-5--12-12
Suggest correction
Give kudos to tab author, rate the tab!
1 2 3 4 5
comments
print report bad tab
guest
You may want to rate the tab now too:
select rating
Wanna post a correction for this tab? Suggest correction