Oops, an error
Loading. Please wait.

Jefe De Jefes Bass Tab

775 views 15 this week
no commentswrite comment
1 2 3 4 5
3 more votes to show rating
add to favorites
launch autoscroll
font size
0
reset
guitar tuner
×
Best way to learn
"Jefe De Jefes"
Autoscroll
slow
fast
+/-
esc
set tempo
stop
Que tal les envio esta excelente linea de bajo esta casi
al 100% de perfección chequen los tiempos y guiense con
la cancion original, puse la letra y acordes principales
para que se puedan guiar, los numeros mas juntos
representan que se tocan mas rapido,
todo va marcado, disfrutenla.


INTRO:  Ami me gustan los corridos...


ACORDEON (A)

G||-----------|-----------|-7-7-8-8-9-|
D||----------7|---------9-|-----------|
A||--------7--|-5-6-7-----|-----------|
E||-----5-----|-----------|-----------|

      (E)                               (A)
                                        Soy el
----------------|----------------|--------------|
-9--6-----------|--7-------------|-----------7--|
-------7-----7--|------9---7-----|------7-------|
----------7----7|-------------9--|--5-----------|


VERSO1:

jefe de jefe señores   me      respetan   a   todos niveles
----------------|----------------|-----7-7-8-8-9|
-------6--7-----|----------------|---9----------|
-7--9-------7---|-7-----7-----5-6|-7------------|
---------------5|----5-----5-----|--------------|

       (E)
  y mi nombre y mi fotografia    nunca van a mirar
----------------|----------------|-------------|
-9--6-----------|----------------|-------------|
-------7-----7--|---7-----7-----7|---5---7---9-|
----------7----7|------7----7----|-------------|

      (A)
en papeles           porque ami el periodista me quiere
--------9-----11|-----13---------|-------------|
-7--------------|-----------7----|-7-6--------9|
-----7-----9----|-11----------7--|------9--7---|
----------------|----------------|-------------|

                  (E)
          y si no mi amistad se la pierde
7-7-8-8-9-------|----------------|-------------|
----------9-6---|-------------7--|-------------|
----------------|--7----7--------|-9--7--------|
----------------|----7----7------|--------9----|


VERSO2:

 (A)
       muchos pollos que apenas nacieron
----------------|----------------|-------------|
------7------6-7|----------------|-------------|
----7---7--9----|-7-------7------|-x-x-x------7|
-5--------------|----5-------5---|--------5----|

                             (E)
ya se quieren pelear con el gallo
----------------|----------------|-7--x--7---9-|
----------------|-------------9--|-------------|
-----7----------|--5-6-7---------|-------------|
-5---------5----|----------------|-------------|

       si pudieran estar a mi altura
----------------|----------------|-------------|
-9-6------------|----------------|-------------|
-------7-------7|--------7-------|-7--------7--|
-----------7----|---7--------7---|-----7-------|

                                (A)
pues tendrian que pasar muchos años     y no
----------------|----------------|-------------|
----------------|---7------------|-------------|
-5----7-----9---|--------9------7|-------------|
----------------|----------------|------9------|

                     (E)
pienso dejarles el puesto
----------------|--------------7-|--x--7---9---|
----------------|---------9------|-------------|
-------7-------7|----------------|-------------|
-5---------5----|---5------------|-------------|

donde yo me la   paso ordenando
----------------|----------------|-------------|
-9--6-----------|-----------7----|-------------|
--------7-------|--7------------9|----7--------|
------------7---|------7---------|---------9---|


CORO1:

(A)                                     (D)
                    mi trabajo y valor me ha costado
----------------|----------------|-------------|
---------7------|-------7---5----|-------------|
-----7------7---|---7-----------9|--7----5-----|
-5-------------5|----------------|-----------5-|

               manejar los contactos que tengo
----------------|----------------|-------------|
----------------|-------4---7----|-4-----------|
-5--------5----5|---7------------|-----7----4--|
-----5----------|----------------|-------------|

(A)
muchos quieren escalar mi altura
----------------|----------------|----------9--|
----------------|----------------|--x-6---9----|
-----7-------7--|-------7-----9--|-------------|
-5-------5------|--5-------------|-------------|

        (E)
   nomas miro que se van cayendo
----------------|----------------|-------9-----|
-9--6-----------|----------------|-------------|
--------7-------|---7--------7--7|--7----------|
------------7---|-------7--------|-------------|

                  (A)
          han querido arañar mi corona
----11------13--|----------------|--7-7--8-8--9|
----------------|-7------7--6----|-------------|
-9-------11-----|----7---------9-|-------------|
----------------|----------------|-------------|

       (E)
    los que intentan se han ido muriendo
----------------|----------------|-------------|
-9-6------------|-----7----------|-------------|
-------7------7-|--------9---7---|-------------|
----------7-----|-7--------------|--9----------|


INTRO2:

ACORDEON (A)

G||-----------|-----------|-7-7-8-8-9-|
D||------7----|---------9-|-----------|
A||----7---7--|-5-6-7-----|-----------|
E||-5--------5|-----------|-----------|


      (E)                               (A)
                                         yo navego debajo
----------------|----------------|--------------|
-9--6-----------|--7-------------|-----------7--|
-------7-----7--|------9---7-----|------7-------|
----------7----7|-------------9--|--5-----------|


VERSO3:

del agua y tambien se volar a la altura
----------------|----------------|-----7-7-8-8-9|
-------6--7-----|----------------|---9----------|
-7--9-------7---|-7-----7-----5-6|-7------------|
---------------5|----5-----5-----|--------------|

       (E)
muchos creen que me busca el gobierno  otros dicen
----------------|----------------|-------------|
-9--6-----------|----------------|-------------|
-------7-----7--|---7-----7-----7|---5---7---9-|
----------7----7|------7----7----|-------------|

      (A)
que es pura mentira  desde arriba nomas me divierto
--------9-----11|-----13---------|-------------|
-7--------------|-----------7----|-7-6--------9|
-----7-----9----|-11----------7--|------9--7---|
----------------|----------------|-------------|

                  (E)
          pues me gusta que asi se confundan
7-7-8-8-9-------|----------------|-------------|
----------9-6---|-------------7--|-------------|
----------------|--7----7--------|-9--7--------|
----------------|----7----7------|--------9----|


VERSO4:

 (A)
       en las cuentas se lleva una regla
----------------|----------------|-------------|
------7------6-7|----------------|-------------|
----7---7--9----|-7-------7------|-x-x-x------7|
-5--------------|----5-------5---|--------5----|

                             (E)
desde el uno llegar hasta el cien
----------------|----------------|-7--x--7---9-|
----------------|-------------9--|-------------|
-----7----------|--5-6-7---------|-------------|
-5---------5----|----------------|-------------|

       el que quiera ser hombre derecho
----------------|----------------|-------------|
-9-6------------|----------------|-------------|
-------7-------7|--------7-------|-7--------7--|
-----------7----|---7--------7---|-----7-------|

                                (A)
que se enseñe a mirar su nivel          sin
----------------|----------------|-------------|
----------------|---7------------|-------------|
-5----7-----9---|--------9------7|-------------|
----------------|----------------|------9------|

                     (E)
talento no busques grandeza
----------------|--------------7-|--x--7---9---|
----------------|---------9------|-------------|
-------7-------7|----------------|-------------|
-5---------5----|---5------------|-------------|

porque nunca la vas a tener
----------------|----------------|-------------|
-9--6-----------|-----------7----|-------------|
--------7-------|--7------------9|----7--------|
------------7---|------7---------|---------9---|


CORO2:

(A)                                     (D)
                    soy el jefe de jefe señores
----------------|----------------|-------------|
---------7------|-------7---5----|-------------|
-----7------7---|---7-----------9|--7----5-----|
-5-------------5|----------------|-----------5-|

               y decirlo no es por presuncion
----------------|----------------|-------------|
----------------|-------4---7----|-4-----------|
-5--------5----5|---7------------|-----7----4--|
-----5----------|----------------|-------------|

(A)
muchos grandes me piden favores
----------------|----------------|----------9--|
----------------|----------------|--x-6---9----|
-----7-------7--|-------7-----9--|-------------|
-5-------5------|--5-------------|-------------|

        (E)
      porque saben que soy el mejor
----------------|----------------|-------9-----|
-9--6-----------|----------------|-------------|
--------7-------|---7--------7--7|--7----------|
------------7---|-------7--------|-------------|

                  (A)
    han buscado la sombra del arbol
----11------13--|----------------|--7-7--8-8--9|
----------------|-7------7--6----|-------------|
-9-------11-----|----7---------9-|-------------|
----------------|----------------|-------------|

       (E)                                  (A)
para que no les de duro el sol
----------------|----------------|-------------|
-9-6------------|-----7----------|-------------|
-------7------7-|--------9---7---|-------------|
----------7-----|-7--------------|--9--------5-|


FINAL:

     (A)
----------------|----------------|-------------|
----------------|----------------|-------------|
----------------|----------------|-------------|
------5---------|----------------|-------------|


Proximamente La tumba falsa
Suggest correction
Give kudos to tab author, rate the tab!
1 2 3 4 5
comments
print report bad tab
guest
You may want to rate the tab now too:
select rating
Wanna post a correction for this tab? Suggest correction