Oops, an error
Loading. Please wait.

Jose Perez Leon Tab

100 views 1 this week
no commentswrite comment
1 2 3 4 5
3 more votes to show rating
add to favorites
launch autoscroll
font size
0
reset
how to read this tab
guitar tuner
Autoscroll
slow
fast
+/-
esc
set tempo
stop
Help us to improve Ultimate-Guitar.com Take our survey!
×
Saludos a toda la raza del 1.Ð. p®eP. L.C.R.

NOTA: Escuchen la canción para entender el requinto.

 INTRO:
 Em,       Bm,       C,       Em,         B7,             Em
6------------------------------------------------------------|
5------------------------------------------------------------|
4------------------------------------------------------------|
3------------------------------------------------------------|
2---------------------------------------------------------7-5|
1-7-5-3-5-7-5-7--7-7-7-7-9-9-10---7-5-3-5-7-5-7--7-5-3-5-3---|


Em
El era un hombre de campo
Bm
oriundo de Nuevo León
 C               Em
tenia apenas diecinueve años
    B7                 Em
su nombre José Pérez León


 Em
Tenia un primo lejano
  Bm
que de mojado se fue
C                     Em                 B7               Em
al poco tiempo le envió un telegrama diciendo ven pronto José
  C                   Em                   B7                Em
pues un trabajo le había ya encontrado pizcando algodón como el


Am       C
Y se fue y se fue
              G             D            Am
ahogando el llanto en el adiós con su mujer, se fue
 C                     G         D            Am
sin saber que de ese viaje ya jamás iba a volver
         Em
pobre José

 Em
Cuando llego a la frontera
  Bm
con Willy se entrevisto
C                    Em         B7          Em
era el pollero mas afamado y astuto de la región
C                    Em         B7          Em
le dijo Pepe hoy estas de suerte mañana te cruzo yo

 Em
La madrugada de un viernes
  Bm
en una vieja estación
C                     Em                B7            Em
treinta inocentes pagaban su cuota entre ellos José Pérez León
C                    Em                B7             Em
y sin dudarlo a todos metieron en el interior de un vagón


INTRO

 Em,          Bm,       C,         Em,       B7,        Em
6------------------------------------------------------------|
5------------------------------------------------------------|
4------------------------------------------------------------|
3------------------------------------------------------------|
2---------------------------------------------------------7-5|
1-7-5-3-5-7-5-7--7-7-7-7-9-9-10---7-5-3-5-7-5-7--7-5-3-5-3---|


El tren cruzo al otro lado
casi siete horas después
fue cuando el aire empezo a terminarse y ya nada pudieron hacer
nadie escucho aquellos gritos de auxilio y la puerta no quiso ceder
uno por uno se fueron cayendo y asi falleció el buen José


CORO:
Am       C
Y se fue y se fue
              G             D            Am
ahogando el llanto en el adios con su mujer, se fue
 C                     G         D            Am
sin saber que de ese viaje ya jamas iva a volver
         Em
pobre José


Asi termina la historia
no queda mas que contar
de otro paisano que arriesga la vida y muere como ilegal
de aquel José que mil sueños tenia y que a casa jamás volverá

6---------------------------------------|
5---------------------------------------|
4---------------------------------------|
3---------------------------------------|
2---------------------------------------|
1-7-5-3-5-7-5-7-5-3-5-7-5-7-5-3-5-7-5-7-|

Alguna duda o aclaración , escribanme a mi correo.
Suggest correction
Give kudos to tab author, rate the tab!
1 2 3 4 5
comments
print report bad tab
guest
You may want to rate the tab now too:
select rating
Wanna post a correction for this tab? Suggest correction