Oops, an error
Loading. Please wait.

Mi Linda Esposa Tab

121 views 1 this week
no commentswrite comment
1 2 3 4 5
3 more votes to show rating
add to favorites
launch autoscroll
font size
0
reset
how to read this tab
guitar tuner
×
Best way to learn
"Mi Linda Esposa"
Autoscroll
slow
fast
+/-
esc
set tempo
stop
Esta cancion esta padre practiquenla y si pueden dedicarla
aganlo ya que yo la dedique a una muñequita lilinda

Intro:

(Esta parte es lo que toca el acordion y el saxofon
                 pero ahora en guitarra)

e|---------------------5-|---7-5---|
b|-10-10-10-10-8-8-7-7-7-|-7-8-7-5-|
g|-11-11-11-11-9-9-7-7---|-7-----6-|
d|-----------------------|---------|
a|-----------------------|---------|
E|-----------------------|---------|

e|-7-7-7-7-5-9--7-7-|--------------|
b|-8-8-8-8-7-10-8-7-|-10-12-10-8-7-|
g|------------------|-11-12-11-9-7-|
d|------------------|--------------|
a|------------------|--------------|
E|------------------|--------------|

     SI7          MI
Como en aquellos tiempos
                SI7
de nuestra juventud
            LA    SI7
mi corazón añora
                MI
tu juventud de rosa
                SI7
yo aún sigo enamorado de ti
           MI
mi linda esposa

 SI7            MI
Ya nuestro pelo negro
                SI7
de blanco se vistió
                  LA     SI7
ya nuestros hijos viven
               MI
la juventud hermosa
                SI7
yo aún sigo enamorado de ti
            MI
mi linda esposa

            MI7        LA  SI7
Que Dios te guarde para mi
      MI
eternamente
              MI7       LA  SI7
pues me ha de separar de ti
         MI
solo LA muerte
          FA#7
amor como este
                SI7
jamás ha de existir

 SI7             MI
Ya nuestro pelo negro
                SI7
de blanco se vistió
                  LA     SI7
ya nuestros hijos viven
               MI
la juventud hermosa
                 SI7
yo aún sigo enamorado de ti
            MI
mi linda esposa

e|---------------------5-|---7-5---|
b|-10-10-10-10-8-8-7-7-7-|-7-8-7-5-|
g|-11-11-11-11-9-9-7-7---|-7-----6-|
d|-----------------------|---------|
a|-----------------------|---------|
E|-----------------------|---------|

e|-7-7-7-7-5-9--7-7-|----------------|
b|-8-8-8-8-7-10-8-7-|-10-12-10-8-7-7-|
g|------------------|-11-12-11-9-7-7-|
d|------------------|----------------|
a|------------------|----------------|
E|------------------|----------------|

                 SI7
yo aún sigo enamorado de ti
            MI
mi linda esposa

            MI7        LA  SI7
Que Dios te guarde para mi
      MI
eternamente
              MI7       LA  SI7
pues me ha de separar de ti
         MI
solo LA muerte
         FA#7
amor como este
               SI7
jamás ha de existir

 SI7            MI
Ya nuestro pelo negro
                SI7
de blanco se vistió
                 LA     SI7
ya nuestros hijos viven
                MI
la juventud hermosa
                 SI7
yo aún sigo enamorado de ti
           MI
mi linda esposa
                SI7
yo aún sigo enamorado de ti
           MI
mi linda esposa

BA... BAY Camaradas
Suggest correction
Give kudos to tab author, rate the tab!
1 2 3 4 5
comments
print report bad tab
guest
You may want to rate the tab now too:
select rating
Wanna post a correction for this tab? Suggest correction