Oops, an error
Loading. Please wait.

Ni Parientes Somos Tab

145 views 1 this week
no commentswrite comment
1 2 3 4 5
3 more votes to show rating
add to favorites
launch autoscroll
font size
0
reset
how to read this tab
guitar tuner
Autoscroll
slow
fast
+/-
esc
set tempo
stop
Help us to improve Ultimate-Guitar.com Take our survey!
×
q hubo raza ai les corro sta rola q sta chida, no
es el tipo de canciones que subo, pero se las
mando con el intro del acordeon puesto en la lyra
s una rola q m llega y simpre s buena en una perda
y pues va spero que les guste y dice asi:


Intro:  A#-A#7-D#-F7-A#-F7-A#

A------------------------------------------------
D------------------------------------------------
G-7-10-10-9-10-7-10------------------------------
B-----8------------11-------11-11-11-10-11-11-9-8
e--------------------11-8-10-----8--------8------

D------------------------------------------------
G------------------------------------------------
B-11--------------------------11-11-----11-10----
e---11-11-11-10-8-8-10-10-10-8-----8-8-8-----11--

D------------
G------------
B-----11-----
e-10-8-------

Porqué voy a llorar
    F7    A#
cuando te vayas

SI alguna vez
               F7
tenía que terminar

este cariño ardiente

como el fuego

si sé que el fuego
                A#
se tiene que apagar


Porqué voy a llorar
    F7     A#
cuando te alejes
  A#7
y digas que ya no
       D#
regresarás
                 F7
es cierto que me duele
       A#
que me dejes
                F7
pero como otras veces
             A#    A#7
ya se me pasará
   D#           F7
porqué voy a llorar
           A#
por tu abandono
                F7
si ni parientes somos
                 A#
lo mismo a mí me da

             F7
Si antes que tú
                       A#
ya había tenido otros amores
            F7
que en su momento
                   A#
quize tanto como a tí
               Gm
cuando alguien muere
                     Cm      F7
siempre se le mandan flores
        A#
y tú ni flores
      F7         A#
vas a recibir de mí


puente:           A#-A#7-D#-F7-A#-F7-A#

A------------------------------------------------
D------------------------------------------------
G-7-10-10-9-10-7-10------------------------------
B-----8------------11-------11-11-11-10-11-11-9-8
e--------------------11-8-10-----8--------8------

D------------------------------------------------
G------------------------------------------------
B-11--------------------------11-11-----11-10----
e---11-11-11-10-8-8-10-10-10-8-----8-8-8-----11--

D------------
G------------
B-----11-----
e-10-8-------

Porqué voy a llorar

cuando te alejes.....(Se repite).
Suggest correction
Give kudos to tab author, rate the tab!
1 2 3 4 5
comments
print report bad tab
guest
You may want to rate the tab now too:
select rating
Wanna post a correction for this tab? Suggest correction