Oops, an error
Loading. Please wait.

El Abominable Hombre De Las Nieves Chords

6 views 1 this week
no commentswrite comment
1 2 3 4 5
3 more votes to show rating
add to favorites
launch autoscroll
font size
0
reset
transpose
0
reset
simplify chords
display chords
guitar tuner
×
Best way to learn
"El Abominable Hombre De Las Nieves"
Autoscroll
slow
fast
+/-
esc
set tempo
stop
G                  Em
El viento me trae la voz
          Bm              C
de algun periodista implacable
G               Em
pero se que mi corazon
            Bm           C
sabra para donde ha de llevarme

G                C
Fotos que estan bien
          G                 C
manchas que no hay algo en que creer
G               C
Blanco y panza al sol
      G               C
donde puedo crecer, nieve en los pies

    Em
No necesito a nadie demostrar 
          A
si existo o no
       Em                A
aqui estoy en fauna no tropical
     C                  D
a veces me pregunto porque

El viento me trae la voz
de algun periodita implacable
pero se que mi corazon
sabra para donde ha de llevarme

Alto cae el sol
y la noche se cierra sobre mi
libre del dolor
caigo como el sol, caigo hasta dormir

No necesito a nadie demostrar 
si existo o no
aqui estoy en fauna no tropical
A veces me pregunto porque
      C                  D
no habre nacido un dia en Tucuman
   C                 D
o ser un maya superstar
         C                         D
y aunque me cueste creer soy abominable

SOLO

|-----------------------------------------------------7/8/7---10/12/10--
|--------------7/8-7---8/10-8--7-7/8/7----------------------8----------8
|--2/4-4---7-9-------9-------------------7--7-7/9-----------------------
|--------5-----------------------------9----------5---------------------
|-----------------------------------------------------------------------
|-----------------------------------------------------------------------

|---15-15-14-12-10-12-10--12-10-8-7-8---|
|-8-----------------------------------8-|
|---------------------------------------| (el solo no termina ahi, 
|---------------------------------------|  hace una subida, pero igual esto
|---------------------------------------|  sirve)
|---------------------------------------|

Gm7                  Dm                 Cm
Saswash, llevo este nombre asi por tierra
         Bb
de sus honorables
Gm7               Dm          Cm
Vida, mi simple y pobre vida mueve 
           D
su triste drenario mental

El viento me trae la voz
de algun periodita implacable
pero se que mi corazon
sabra para donde ha de llevarme

Gm7                 Dm-Cm-G
el viento me trae la voz...
Suggest correction
Give kudos to tab author, rate the tab!
1 2 3 4 5
comments
print report bad tab
guest
You may want to rate the tab now too:
select rating
Wanna post a correction for this tab? Suggest correction