Oops, an error
Loading. Please wait.

Flor Negra Tab

83 views 1 this week
no commentswrite comment
1 2 3 4 5
3 more votes to show rating
add to favorites
×
Save as Personal and add changes to this tab that will be seen only by you. Learn more ›
×
You can save this tab as Personal to edit and correct it or add notes. All changes will be seen only by you. Learn more »
save as personal
new!
launch autoscroll
font size
0
reset
how to read this tab
guitar tuner
Autoscroll
slow
fast
+/-
esc
set tempo
stop
Intro (G Bm Em C):

    G                    Bm
E|------------7---10------------
B|8---8--10------------7--8-10--
G|------------------------------
D|------------------------------
G|------------------------------
E|------------------------------


    Em                      C
E|------------------------------
B|------------------------------
G|9---9--11---12-12-------------
D|---------------------12--10-9-
G|------------------------------
E|------------------------------

x2


Am                             G     Em
Si fuera como el viento que no puede caerse
Am                           C       D
que vive en el podría yo sin vacilar relajarme a volar
Am                             G     Em
pero siempre que algo viene quiero darle la mano
Am                              C          D
quiero entrar y aunque lo voy a pensar no quiero decir que


Em            D              G                C
Decir que no abre cierra dos puertas entrar sin ver
Am                      D
donde mata el reflejo pero
Em           D            G      C
si es una canción es un regalo importante
Am                       D
el robarle al tiempo una flor negra
Em            D     G
es un regalo muy importante


Intro x2


Am                      G               Em
Sé que me enojo tanto y muchas veces por nada
Am                        C            D
muchas sin razon y no puedo despegar en mi vision
Am                             G     Em
me desangro con acciones que no sostienen nada
Am                              C          D
algo que creo saber posiciones de ficcion no quiero


Em            D              G                C
Decir que no levanta dos barreras que hay que saltar
Am                D
aunque diga prohibido y me
Em           D            G        C
pierda la canción que es un regalo importante
Am                       D
el robarle al timpo una flor negra
Em            D     G
es un regalo muy importante

    G                    Bm
E|------------7---10------------
B|8---8--10------------7--8-10--
G|------------------------------
D|------------------------------
G|------------------------------
E|------------------------------


                                Em                  C

                           E|------------------------------
                           B|------------------------------
                           G|9---9--11---12-12-------------
Es un regalo muy imporante D|---------------------12--10-9-
                           G|------------------------------
                           E|------------------------------

                                  x2

                         FIN: G


Transcripcion hecha por Ary Wengier, cualquier duda, errores,
etc: arylucho@
Suggest correction
Give kudos to tab author, rate the tab!
1 2 3 4 5
comments
print report bad tab
guest
Wanna post a correction for this tab? Suggest correction