Oops, an error
Loading. Please wait.

Habla Conmigo Tab

14 views 1 this week
no commentswrite comment
1 2 3 4 5
3 more votes to show rating
add to favorites
launch autoscroll
font size
0
reset
how to read this tab
guitar tuner
×
Best way to learn
"Habla Conmigo"
Autoscroll
slow
fast
+/-
esc
set tempo
stop
INTRO

    G    /   F        /       C                    /      G      /     F

E---------------------------------8-7-8---8-7-8---------------------------
B-----------------------6--------------8----------8------------------------
G-6b7----4-7-5-------------5/0------------------------ 9----7----7--6--5--
D---------------------------------------------------------9-----9-8--7--
G----------------------------------------------------------------------------
E----------------------------------------------------------------------------

         Em           F             G
E--------------------------------------------
B--------------------------------13----------
G--------9--------9---10-10---------12-------
D---7/10---9---------------------------------
G--------------------------------------------
E--------------------------------------------


Esta parte la hace con el piano
E---------------------0----------
B---------------1--3------------
G--------0--2------------------
D--0--2------------------------
G-------------------------------
E-------------------------------


C
Imagino como hacer

Cualquier cosa irrelevante y
Em
No puedo convencer
F
A mi viejo cerebro
                   C
Que me hable

Que me hable de algún día
Cualquier cosa me serviría
Y algo balbucea
Como si ya supiera
de lo que habla


-Estribillo-
G                                   F
Duerme solo en un rincón en mi cabeza
C                               G
Ya no me contesta nunca lo vi así
F                                     Em
Tan cansado de luchar contra la tristeza
                  F                            Riff1
Y la falta de destreza que le dio un televisor


Riif 1
E----0-0---0-0-0-0-0------------
B----1-1---1-1-0-1-3------------
G----2-2---2-2-2-2-2------------
D-------------------------------
A-------------------------------
E-------------------------------


Ahora que lo pienso
 estoy mejor pero no puedo
Comprenderme solo
El alma que yo siento
 esta en todos


-Estribillo-


D5      Am       G             F    Em
Cielo, divino, mío tan solo
D5       Am           G / F / C
Habla, conmigo


Solo
      C                         /               Em  / F
E------------------------------------------------------------
B------------------------------------------------------------
G---------------5-------------5------7h9-7h5h9--9---7-5------
D---------5-7----7------5-7----7--------------------------7--
A----3-5------------3-5--------------------------------------
E------------------------------------------------------------


       /         C             /
E-------------------8-------------------------
B----------------8----8-----13-12--8-10-8-
G------5-----9---------9---------------------
D----5-----------------------------------------
A--7-------------------------------------------
E-----------------------------------------------

-Estribillo-

D5      Am       G             F    Em
Cielo, divino, mío tan solo
D5       Am          Final
Habla, conmigo


Final
E----------------------------------------------
B-5/8-5------------------------------------
G----------5-2--7--5------------------------
D---------------------------------------------
G---------------------------------------------
E---------------------------------------------
Suggest correction
Give kudos to tab author, rate the tab!
1 2 3 4 5
comments
print report bad tab
guest
You may want to rate the tab now too:
select rating
Wanna post a correction for this tab? Suggest correction