Oops, an error
Loading. Please wait.

Hay Un Lugar Tab

16 views 1 this week
no commentswrite comment
1 2 3 4 5
3 more votes to show rating
add to favorites
×
Save as Personal and add changes to this tab that will be seen only by you. Learn more ›
×
You can save this tab as Personal to edit and correct it or add notes. All changes will be seen only by you. Learn more »
save as personal
new!
launch autoscroll
font size
0
reset
how to read this tab
guitar tuner
Autoscroll
slow
fast
+/-
esc
set tempo
stop
Hola! es mi primera trasncripción de un tema simple
pero bien divertido de Los Tipitos.
Como siempre es escencial escuchar muy bien el tema
y prestarle muchisima atencion a los acentos.

INTRO: con D (mucha atencion a los acentos,son todos downstrokes)
Esta secuencia se repite en casi todas las estrofas, paren la oreja!

 ____________riff 1___________ ___________riff 2__________
/                             |                           |
   D           D                   D       D      Bm C D
e||-2-2---2-----2-2---2-2-5-5-3-2-|---2-2---2-----2-2---2--------|| x 2
b||-3-3---3-----3-3---3-3-3-3-3-3-|---3-3---3-----3-3---3-3/5-7--||
D||-2-2---2-----2-2---2-2---------|---2-2---2-----2-2---2-4/5-7--||
G||-0-0---0-----0-0---0-0---------|---0-0---0-----0-0---0--------||
A||-------------------------------|------------------------------||
E||-------------------------------|------------------------------||


   D
Hay un lugar
        C              Bm
Adonde puedes ir cuando estás mal
   D
Hay un lugar
        C               Bm
adonde puedes sentarte y escuchar
   D
Su voz ayer
           C             Bm                       D
Cuando una vez te decía: Yo solo te quiero a ti
                         C                Bm
Solo por ti, lo arriesgaría todo sin pensarlo


Em                 A
Cierras una puerta
D                   Bm
Donde no existe el tiempo
Em                  A
Como dice el cuento
D                     D/B           Bm
Ya cambiaron un cartel   en la ciudad
A              G
Y lo que vendrá


    D           C            G         C
    Sabes,        hay un lugar
    D           C            G         C
    Sabes,        hay un lugar
         D (tocar riff 2 de intro, 3 ataques de D y silencio)
    Sabes


D
Dale, dale
        C             Bm
Una mañana distinta caminar
D
Preso, presa
          C                Bm
De los caminos que se iban a cruzar
D
Y puedes ver
        C               Bm                D
Cadena de movimientos cosas escritas allí

Solo por ti
           C                Bm
Lo arriesgaría todo sin pensarlo

Em                  A
Flores de Florencia
D                   Bm
Heredamos su conciencia
Em                   A
Cuando vuelva a verla
D               D/B               Bm
Y se haya terminado el tiempo de hoy
   A             G
Y de lo que vendrá,
   A             Bm
testigo inquisidor
  A       G
Del Corazón


    D           C            G         C
    Sabes,        hay un lugar
    D           C            G         C
    Sabes,        hay un lugar
    D           C            G         C
    Sabes,        hay un lugar
    D           C            G
    Sabes       there's a place


e||-2-2--2----2-2--2-------|-2-2--2----2-2--2-2-5-5-3-2-|-2-2--2----2-2--2-||
b||-3-3--3----3-3--3-3/5-7-|-3-3--3----3-3--3-3-3-3-3-3-|-3-3--3----3-3--3-||
D||-2-2--2----2-2--2-4/5-7-|-2-2--2----2-2--2-2---------|-2-2--2----2-2--2-||
G||-0-0--0----0-0--0-------|-0-0--0----0-0--0-0---------|-0-0--0----0-0--0-||
A||------------------------|----------------------------|------------------||
E||------------------------|----------------------------|------------------||
Suggest correction
Give kudos to tab author, rate the tab!
1 2 3 4 5
comments
print report bad tab
guest
Wanna post a correction for this tab? Suggest correction