Oops, an error
Loading. Please wait.

La Ley De La Ferocidad Tab

119 views 1 this week
no commentswrite comment
1 2 3 4 5
3 more votes to show rating
add to favorites
×
Save as Personal and add changes to this tab that will be seen only by you. Learn more ›
×
You can save this tab as Personal to edit and correct it or add notes. All changes will be seen only by you. Learn more »
save as personal
new!
launch autoscroll
font size
0
reset
how to read this tab
guitar tuner
Autoscroll
slow
fast
+/-
esc
set tempo
stop
Intro:

Primera guitarra:

E-/-5-/
B-/---/
G-/---/  repite esta nota durante toda la intro
D-/---/
A-/---/
E-/---/

Segunda guitarra:

e-/-----------------/
B-/-----------------/
G-/-----------------/ X 4
D-/-----------------/
A-/-0-0-6-6-5-5-3-0-/
E-/-----------------/

A5                                        C5
Dejé de sostener el techo y se me vino encima,
A5                                  E5
Como se me viene encima el vino al amanecer..
F5                G5                     A5 A5*
Todo se prepara entonces para ser un mal dia
E5                 F5
Pero aun estoy de pie.


A5                                  C5
Contaminación, escombros, drogones, ratas.


    A5                                E5
e-/---------------------------------/---------------------------------/
B-/---------------------------------/---------------------------------/
G-/-5-5-5-5-5-5-5-5-7-7-7-7-7-7-7-7-/-2-2-2-2-2-2-2-2-1-1-1-1-1-1-1-1-/
D-/-7-7-7-7-7-7-7-7-7-7-7-7-7-7-7-7-/-2-2-2-2-2-2-2-2-2-2-2-2-2-2-2-2-/
A-/-7-7-7-7-7-7-7-7-7-7-7-7-7-7-7-7-/-2-2-2-2-2-2-2-2-2-2-2-2-2-2-2-2-/
E-/-5-5-5-5-5-5-5-5-5-5-5-5-5-5-5-5-/-0-0-0-0-0-0-0-0-0-0-0-0-0-0-0-0-/

Lo que quedó después que algunos ganaron mucho aquí
F5                   G5               A5 A5*
Ahora que todo esta muerto ya nada escapa
E5               F5
Al dolor de un querer de ayer..


    C                 Em
Estaré repitiendo mi nombre.
    Am               F
Estaré escupiendo maldad.
    F                G
Esperando la piña final,
    C                       D
e-/-------/----------/-------/
B-/-------/----------/-------/
G-/-------/----------/-------/
D-/-------/----------/-------/
A-/-3-5-7-/----------/-5-7-9-/
E-/-------/----------/-------/

esperando el golpe del knock out!

e-/----------------------/----------------------/
B-/----------------------/----------------------/
G-/----------------------/----------------------/
D-/----------------------/----------------------/
A-/----------------------/----------------------/
E-/-3-3-5-7--3-3-5-7-5-3-/-1-1-3-5--1-1-3-5-3-1-/

La verdad que nos enfrentará,
e-/----------------------/
B-/----------------------/
G-/----------------------/
D-/----------------------/ REPITE LA INTRO
A-/----------------------/
E-/-3-3-5-7--3-3-5-7-5-3-/

Con la ley de la ferocidad.


[[Estas notas se tocan subiendo y vajado la pua bien rapido:

e-/----------------------------------------/
B-/----------------------------------------/
G-/----------------------------------------/
D-/----------------------------------------/
A-/-77777777777777777777777777777777777...-/
E-/----------------------------------------/

El cadáver de mi padre duro en una mesa,

e-/--------------------------------------------------
B-/--------------------------------------------------
G-/--------------------------------------------------
D-/------------------------------7777777...6666666...
A-/-33333333333...555555555555...--------------------
E-/--------------------------------------------------

El y la muerte que luce son igual a mí

e-/---------------------------------------------------
B-/---------------------------------------------------
G-/---------------------------------------------------
D-/-77777777777777...9999999999999999...10...---------
A-/-------------------------------------------9999....
E-/---------------------------------------------------

La fianza de una herida que nunca nos deja

e-/------/--------------/--------------------------/
B-/------/--------------/--------------------------/
G-/------/--------------/--------------------------/
D-/------/--------------/--------------------------/
A-/-10.../--------------/--------------------------/
E-/------/--------------/-1-1-3-5-3-1--1-1-3-5-3-1-/

y un rencor heredándome.


      C                  Em
En la noche de mi sentimiento,
      Am              F
Despoblada y sin oxigenar
      F                 G
Como para no verme arrastrar
       C                  D
e-/-------/----------/-------/
B-/-------/----------/-------/
G-/-------/----------/-------/
D-/-------/----------/-------/
A-/-3-5-7-/----------/-5-7-9-/
E-/-------/----------/-------/

por el barro de la enfermedad.


e-/----------------------/----------------------/
B-/----------------------/----------------------/
G-/----------------------/----------------------/
D-/----------------------/----------------------/
A-/----------------------/----------------------/
E-/-3-3-5-7--3-3-5-7-5-3-/-1-1-3-5--1-1-3-5-3-1-/

Por llegar hasta el ultimo round

e-/----------------------/-------------------------/
B-/----------------------/-------------------------/
G-/----------------------/-------------------------/
D-/----------------------/-------------------------/
A-/----------------------/-------------5-5-7-8-7-5-/
E-/-3-3-5-7--3-3-5-7-5-3-/-5-5-7-8-7-5-------------/

Es la ley de la ferocidad

e-/----------------------/----------------------/
B-/----------------------/----------------------/
G-/----------------------/----------------------/
D-/----------------------/----------------------/
A-/----------------------/----------------------/
E-/-3-3-5-7--3-3-5-7-5-3-/-1-1-3-5--1-1-3-5-3-1-/

Es la ley de la ferocidad

e-/----------------------/---------------------------------------------------/
B-/----------------------/---------------------------------------------------/
G-/----------------------/----5-5-5-4---5-5-4---5-5-4---5-4---7b-5-7-5-------/
D-/----------------------/------------7-------7-------7-----7----------7-5-7-/
A-/----------------------/---------------------------------------------------/
E-/-3-3-5-7--3-3-5-7-5-3-/-5-------------------------------------------------/
Es la ley de la ferocidad

e-/-----------------------------------------------/
B-/-----------------------------------------------/
G-/-5-5-4---5-5-4---5-5-4---5-4---7b-5-7-5--------/
D-/-------7-------7-------7-----7----------7-5-7v-/
A-/-----------------------------------------------/
E-/-----------------------------------------------/


Dejé caer mis pecados unos sobre otros

Olvidé por que nací, ahora no puedo volver..

Ella levanta mi cara y mira a mis ojos

e-/---------------------------------------/
B-/---------------------------------------/
G-/---------------------------------------/
D-/---------------------------------------/
A-/---------------------------------------/
E-/-1-3-5/--1-3-5/--1-3-5/--1-1-33-55-7-8-/

Me dice... "Yo sí sé quiens sos."


      C                  Em
En la noche de mi sentimiento,
      Am              F
Despoblada y sin oxigenar
      F                 G
Esperando la piña final
       C                  D
e-/-------/----------/-------/
B-/-------/----------/-------/
G-/-------/----------/-------/
D-/-------/----------/-------/
A-/-3-5-7-/----------/-5-7-9-/
E-/-------/----------/-------/

Esperando el golpe del knock out!

e-/----------------------/----------------------/
B-/----------------------/----------------------/
G-/----------------------/----------------------/
D-/----------------------/----------------------/
A-/----------------------/----------------------/
E-/-3-3-5-7--3-3-5-7-5-3-/-1-1-3-5--1-1-3-5-3-1-/

Es la ley de la ferocidad

e-/----------------------/-------------------------/
B-/----------------------/-------------------------/
G-/----------------------/-------------------------/
D-/----------------------/-------------------------/
A-/----------------------/-------------5-5-7-8-7-5-/
E-/-3-3-5-7--3-3-5-7-5-3-/-5-5-7-8-7-5-------------/

Es la ley de la ferocidad

e-/----------------------/----------------------/
B-/----------------------/----------------------/
G-/----------------------/----------------------/
D-/----------------------/----------------------/
A-/----------------------/----------------------/
E-/-3-3-5-7--3-3-5-7-5-3-/-1-1-3-5--1-1-3-5-3-1-/

Es la ley de la ferocidad

e-/----------------------/---------------------------------------------------/
B-/----------------------/---------------------------------------------------/
G-/----------------------/----5-5-5-4---5-5-4---5-5-4---5-4---7b-5-7-5-------/
D-/----------------------/------------7-------7-------7-----7----------7-5-7-/
A-/----------------------/---------------------------------------------------/
E-/-3-3-5-7--3-3-5-7-5-3-/-5-------------------------------------------------/
Es la ley de la ferocidad

e-/--------------------------------------------/-/---------------/  /---/
B-/--------------------------------------------/-/---------------/  /---/
G-/-5-5-4---5-5-4---5-5-4---5-4---7b-5-7-5-----/-/---------------/  /---/
D-/-------7-------7-------7-----7----------7-5-/-/---------------/X8/-7-/
A-/--------------------------------------------/-/-0-0-6-6-5-5-3-/  /-7-/
E-/--------------------------------------------/-/---------------/  /-5-/


A5*

E-/---/
B-/---/
G-/---/
D-/-7-/
A-/-6-/
E-/-5-/
Suggest correction
Give kudos to tab author, rate the tab!
1 2 3 4 5
comments
print report bad tab
guest
Wanna post a correction for this tab? Suggest correction